  0
SECTION
  2
HEADER
  9
$ACADVER
  1
AC1015
  9
$ACADMAINTVER
 70
    10
  9
$DWGCODEPAGE
  3
ANSI_1250
  9
$INSBASE
 10
0.0
 20
0.0
 30
0.0
  9
$EXTMIN
 10
167.7667248060074
 20
124.5944374820618
 30
-0.0000000349181948
  9
$EXTMAX
 10
271.2350471914223
 20
187.4286809838711
 30
0.0000000814935746
  9
$LIMMIN
 10
0.0
 20
0.0
  9
$LIMMAX
 10
420.0
 20
297.0
  9
$ORTHOMODE
 70
     1
  9
$REGENMODE
 70
     1
  9
$FILLMODE
 70
     1
  9
$QTEXTMODE
 70
     0
  9
$MIRRTEXT
 70
     1
  9
$LTSCALE
 40
1.0
  9
$ATTMODE
 70
     1
  9
$TEXTSIZE
 40
2.5
  9
$TRACEWID
 40
1.0
  9
$TEXTSTYLE
  7
STANDARD
  9
$CLAYER
  8
STITEK_M
  9
$CELTYPE
  6
BYLAYER
  9
$CECOLOR
 62
   256
  9
$CELTSCALE
 40
1.0
  9
$DISPSILH
 70
     0
  9
$DIMSCALE
 40
1.0
  9
$DIMASZ
 40
2.5
  9
$DIMEXO
 40
0.625
  9
$DIMDLI
 40
3.75
  9
$DIMRND
 40
0.0
  9
$DIMDLE
 40
0.0
  9
$DIMEXE
 40
1.25
  9
$DIMTP
 40
0.0
  9
$DIMTM
 40
0.0
  9
$DIMTXT
 40
2.5
  9
$DIMCEN
 40
2.5
  9
$DIMTSZ
 40
0.0
  9
$DIMTOL
 70
     0
  9
$DIMLIM
 70
     0
  9
$DIMTIH
 70
     0
  9
$DIMTOH
 70
     0
  9
$DIMSE1
 70
     0
  9
$DIMSE2
 70
     0
  9
$DIMTAD
 70
     1
  9
$DIMZIN
 70
     8
  9
$DIMBLK
  1

  9
$DIMASO
 70
     1
  9
$DIMSHO
 70
     1
  9
$DIMPOST
  1

  9
$DIMAPOST
  1

  9
$DIMALT
 70
     0
  9
$DIMALTD
 70
     4
  9
$DIMALTF
 40
0.0394
  9
$DIMLFAC
 40
1.0
  9
$DIMTOFL
 70
     1
  9
$DIMTVP
 40
0.0
  9
$DIMTIX
 70
     0
  9
$DIMSOXD
 70
     0
  9
$DIMSAH
 70
     0
  9
$DIMBLK1
  1

  9
$DIMBLK2
  1

  9
$DIMSTYLE
  2
STANDARD
  9
$DIMCLRD
 70
     0
  9
$DIMCLRE
 70
     0
  9
$DIMCLRT
 70
     0
  9
$DIMTFAC
 40
1.0
  9
$DIMGAP
 40
0.625
  9
$DIMJUST
 70
     0
  9
$DIMSD1
 70
     0
  9
$DIMSD2
 70
     0
  9
$DIMTOLJ
 70
     1
  9
$DIMTZIN
 70
     0
  9
$DIMALTZ
 70
     0
  9
$DIMALTTZ
 70
     0
  9
$DIMUPT
 70
     0
  9
$DIMDEC
 70
     4
  9
$DIMTDEC
 70
     4
  9
$DIMALTU
 70
     8
  9
$DIMALTTD
 70
     4
  9
$DIMTXSTY
  7
STANDARD
  9
$DIMAUNIT
 70
     0
  9
$DIMADEC
 70
     0
  9
$DIMALTRND
 40
0.0
  9
$DIMAZIN
 70
     0
  9
$DIMDSEP
 70
    46
  9
$DIMATFIT
 70
     3
  9
$DIMFRAC
 70
     0
  9
$DIMLDRBLK
  1

  9
$DIMLUNIT
 70
     6
  9
$DIMLWD
 70
    -2
  9
$DIMLWE
 70
    -2
  9
$DIMTMOVE
 70
     0
  9
$LUNITS
 70
     2
  9
$LUPREC
 70
     4
  9
$SKETCHINC
 40
1.0
  9
$FILLETRAD
 40
3.0
  9
$AUNITS
 70
     0
  9
$AUPREC
 70
     0
  9
$MENU
  1
.
  9
$ELEVATION
 40
0.0
  9
$PELEVATION
 40
0.0
  9
$THICKNESS
 40
0.0
  9
$LIMCHECK
 70
     0
  9
$CHAMFERA
 40
0.5
  9
$CHAMFERB
 40
0.5
  9
$CHAMFERC
 40
20.0
  9
$CHAMFERD
 40
0.0
  9
$SKPOLY
 70
     0
  9
$TDCREATE
 40
2451249.599062731
  9
$TDUCREATE
 40
2451249.557396065
  9
$TDUPDATE
 40
2454553.612021481
  9
$TDUUPDATE
 40
2454553.570354814
  9
$TDINDWG
 40
0.0479135069
  9
$TDUSRTIMER
 40
0.0479135069
  9
$USRTIMER
 70
     1
  9
$ANGBASE
 50
0.0
  9
$ANGDIR
 70
     0
  9
$PDMODE
 70
     0
  9
$PDSIZE
 40
0.0
  9
$PLINEWID
 40
0.0
  9
$SPLFRAME
 70
     0
  9
$SPLINETYPE
 70
     6
  9
$SPLINESEGS
 70
     8
  9
$HANDSEED
  5
2AE
  9
$SURFTAB1
 70
     6
  9
$SURFTAB2
 70
     6
  9
$SURFTYPE
 70
     6
  9
$SURFU
 70
     6
  9
$SURFV
 70
     6
  9
$UCSBASE
  2

  9
$UCSNAME
  2

  9
$UCSORG
 10
0.0
 20
0.0
 30
0.0
  9
$UCSXDIR
 10
1.0
 20
0.0
 30
0.0
  9
$UCSYDIR
 10
0.0
 20
1.0
 30
0.0
  9
$UCSORTHOREF
  2

  9
$UCSORTHOVIEW
 70
     0
  9
$UCSORGTOP
 10
0.0
 20
0.0
 30
0.0
  9
$UCSORGBOTTOM
 10
0.0
 20
0.0
 30
0.0
  9
$UCSORGLEFT
 10
0.0
 20
0.0
 30
0.0
  9
$UCSORGRIGHT
 10
0.0
 20
0.0
 30
0.0
  9
$UCSORGFRONT
 10
0.0
 20
0.0
 30
0.0
  9
$UCSORGBACK
 10
0.0
 20
0.0
 30
0.0
  9
$PUCSBASE
  2

  9
$PUCSNAME
  2

  9
$PUCSORG
 10
0.0
 20
0.0
 30
0.0
  9
$PUCSXDIR
 10
1.0
 20
0.0
 30
0.0
  9
$PUCSYDIR
 10
0.0
 20
1.0
 30
0.0
  9
$PUCSORTHOREF
  2

  9
$PUCSORTHOVIEW
 70
     0
  9
$PUCSORGTOP
 10
0.0
 20
0.0
 30
0.0
  9
$PUCSORGBOTTOM
 10
0.0
 20
0.0
 30
0.0
  9
$PUCSORGLEFT
 10
0.0
 20
0.0
 30
0.0
  9
$PUCSORGRIGHT
 10
0.0
 20
0.0
 30
0.0
  9
$PUCSORGFRONT
 10
0.0
 20
0.0
 30
0.0
  9
$PUCSORGBACK
 10
0.0
 20
0.0
 30
0.0
  9
$USERI1
 70
     0
  9
$USERI2
 70
     0
  9
$USERI3
 70
     0
  9
$USERI4
 70
     0
  9
$USERI5
 70
     0
  9
$USERR1
 40
0.0
  9
$USERR2
 40
0.0
  9
$USERR3
 40
0.0
  9
$USERR4
 40
0.0
  9
$USERR5
 40
0.0
  9
$WORLDVIEW
 70
     1
  9
$SHADEDGE
 70
     3
  9
$SHADEDIF
 70
    70
  9
$TILEMODE
 70
     1
  9
$MAXACTVP
 70
    48
  9
$PINSBASE
 10
0.0
 20
0.0
 30
0.0
  9
$PLIMCHECK
 70
     0
  9
$PEXTMIN
 10
1.000000000000000E+20
 20
1.000000000000000E+20
 30
1.000000000000000E+20
  9
$PEXTMAX
 10
-1.000000000000000E+20
 20
-1.000000000000000E+20
 30
-1.000000000000000E+20
  9
$PLIMMIN
 10
0.0
 20
0.0
  9
$PLIMMAX
 10
420.0
 20
297.0
  9
$UNITMODE
 70
     0
  9
$VISRETAIN
 70
     1
  9
$PLINEGEN
 70
     0
  9
$PSLTSCALE
 70
     1
  9
$TREEDEPTH
 70
  3020
  9
$CMLSTYLE
  2
STANDARD
  9
$CMLJUST
 70
     0
  9
$CMLSCALE
 40
20.0
  9
$PROXYGRAPHICS
 70
     1
  9
$MEASUREMENT
 70
     0
  9
$CELWEIGHT
370
    -1
  9
$ENDCAPS
280
     0
  9
$JOINSTYLE
280
     0
  9
$LWDISPLAY
290
     0
  9
$INSUNITS
 70
     0
  9
$HYPERLINKBASE
  1

  9
$STYLESHEET
  1

  9
$XEDIT
290
     1
  9
$CEPSNTYPE
380
     0
  9
$PSTYLEMODE
290
     1
  9
$FINGERPRINTGUID
  2
{BB8631D0-0613-11D4-B1E1-0000B48F6CD8}
  9
$VERSIONGUID
  2
{BEF06673-CE75-4378-B879-2A162D723508}
  9
$EXTNAMES
290
     1
  9
$PSVPSCALE
 40
0.0
  9
$OLESTARTUP
290
     0
  0
ENDSEC
  0
SECTION
  2
CLASSES
  0
CLASS
  1
LWPOLYLINE
  2
AcDbPolyline
  3
AutoCAD 2000
 90
    32768
280
     0
281
     1
  0
CLASS
  1
ACDBDICTIONARYWDFLT
  2
AcDbDictionaryWithDefault
  3
AutoCAD 2000
 90
        0
280
     0
281
     0
  0
CLASS
  1
ACDBPLACEHOLDER
  2
AcDbPlaceHolder
  3
AutoCAD 2000
 90
        0
280
     0
281
     0
  0
CLASS
  1
LAYOUT
  2
AcDbLayout
  3
AutoCAD 2000
 90
        0
280
     0
281
     0
  0
CLASS
  1
DICTIONARYVAR
  2
AcDbDictionaryVar
  3
AutoCAD 2000
 90
        0
280
     0
281
     0
  0
CLASS
  1
SORTENTSTABLE
  2
AcDbSortentsTable
  3
AutoCAD 2000
 90
        0
280
     0
281
     0
  0
ENDSEC
  0
SECTION
  2
TABLES
  0
TABLE
  2
VPORT
  5
8
330
0
100
AcDbSymbolTable
 70
     3
  0
VPORT
  5
2AD
330
8
100
AcDbSymbolTableRecord
100
AcDbViewportTableRecord
  2
*Active
 70
     0
 10
0.0
 20
0.0
 11
1.0
 21
1.0
 12
219.5008859987149
 22
156.0115592329664
 13
0.0
 23
0.0
 14
10.0
 24
10.0
 15
10.0
 25
10.0
 16
0.0
 26
0.0
 36
1.0
 17
0.0
 27
0.0
 37
0.0
 40
69.45506425355842
 41
1.496962332928311
 42
50.0
 43
0.0
 44
0.0
 50
0.0
 51
0.0
 71
     0
 72
   100
 73
     1
 74
     1
 75
     0
 76
     0
 77
     0
 78
     0
281
     0
 65
     1
110
0.0
120
0.0
130
0.0
111
1.0
121
0.0
131
0.0
112
0.0
122
1.0
132
0.0
 79
     0
146
0.0
  0
ENDTAB
  0
TABLE
  2
LTYPE
  5
5
330
0
100
AcDbSymbolTable
 70
     1
  0
LTYPE
  5
12
330
5
100
AcDbSymbolTableRecord
100
AcDbLinetypeTableRecord
  2
BYBLOCK
 70
     0
  3

 72
    65
 73
     0
 40
0.0
  0
LTYPE
  5
13
330
5
100
AcDbSymbolTableRecord
100
AcDbLinetypeTableRecord
  2
BYLAYER
 70
     0
  3

 72
    65
 73
     0
 40
0.0
  0
LTYPE
  5
14
330
5
100
AcDbSymbolTableRecord
100
AcDbLinetypeTableRecord
  2
CONTINUOUS
 70
     0
  3
Solid line
 72
    65
 73
     0
 40
0.0
  0
ENDTAB
  0
TABLE
  2
LAYER
  5
2
330
0
100
AcDbSymbolTable
 70
     5
  0
LAYER
  5
E
330
2
100
AcDbSymbolTableRecord
100
AcDbLayerTableRecord
  2
0
 70
     0
 62
     7
  6
CONTINUOUS
370
    -3
390
128
  0
LAYER
  5
198
330
2
100
AcDbSymbolTableRecord
100
AcDbLayerTableRecord
  2
SVORKY_POPIS
 70
     0
 62
     7
  6
CONTINUOUS
370
    -3
390
128
  0
LAYER
  5
1AA
330
2
100
AcDbSymbolTableRecord
100
AcDbLayerTableRecord
  2
KRABICKA
 70
     0
 62
     7
  6
CONTINUOUS
370
    -3
390
128
  0
LAYER
  5
1AB
330
2
100
AcDbSymbolTableRecord
100
AcDbLayerTableRecord
  2
STITEK_M
 70
     0
 62
   253
  6
CONTINUOUS
370
    -3
390
128
  0
LAYER
  5
1AC
330
2
100
AcDbSymbolTableRecord
100
AcDbLayerTableRecord
  2
SVORKY
 70
     0
 62
     3
  6
CONTINUOUS
370
    -3
390
128
  0
ENDTAB
  0
TABLE
  2
STYLE
  5
3
330
0
100
AcDbSymbolTable
 70
     2
  0
STYLE
  5
F
330
3
100
AcDbSymbolTableRecord
100
AcDbTextStyleTableRecord
  2
STANDARD
 70
     0
 40
0.0
 41
1.0
 50
0.0
 71
     0
 42
2.5
  3
txt
  4

  0
STYLE
  5
199
330
3
100
AcDbSymbolTableRecord
100
AcDbTextStyleTableRecord
  2
COMIC
 70
     0
 40
0.0
 41
1.0
 50
0.0
 71
     0
 42
1.5
  3
COMIC.TTF
  4

1001
ACAD
1000
Comic Sans MS
1071
       66
  0
ENDTAB
  0
TABLE
  2
VIEW
  5
6
330
0
100
AcDbSymbolTable
 70
     0
  0
ENDTAB
  0
TABLE
  2
UCS
  5
7
330
0
100
AcDbSymbolTable
 70
     0
  0
ENDTAB
  0
TABLE
  2
APPID
  5
9
330
0
100
AcDbSymbolTable
 70
     1
  0
APPID
  5
10
330
9
100
AcDbSymbolTableRecord
100
AcDbRegAppTableRecord
  2
ACAD
 70
     0
  0
ENDTAB
  0
TABLE
  2
DIMSTYLE
  5
A
330
0
100
AcDbSymbolTable
 70
     1
100
AcDbDimStyleTable
 71
     1
340
1D
  0
DIMSTYLE
105
1D
330
A
100
AcDbSymbolTableRecord
100
AcDbDimStyleTableRecord
  2
STANDARD
 70
     0
340
F
  0
ENDTAB
  0
TABLE
  2
BLOCK_RECORD
  5
1
330
0
100
AcDbSymbolTable
 70
     0
  0
BLOCK_RECORD
  5
18
102
{ACAD_XDICTIONARY
360
2A7
102
}
330
1
100
AcDbSymbolTableRecord
100
AcDbBlockTableRecord
  2
*MODEL_SPACE
340
12B
  0
BLOCK_RECORD
  5
15
330
1
100
AcDbSymbolTableRecord
100
AcDbBlockTableRecord
  2
*PAPER_SPACE
340
12C
  0
ENDTAB
  0
ENDSEC
  0
SECTION
  2
BLOCKS
  0
BLOCK
  5
19
330
18
100
AcDbEntity
  8
0
100
AcDbBlockBegin
  2
*MODEL_SPACE
 70
     0
 10
0.0
 20
0.0
 30
0.0
  3
*MODEL_SPACE
  1

  0
ENDBLK
  5
1A
330
18
100
AcDbEntity
  8
0
100
AcDbBlockEnd
  0
BLOCK
  5
16
330
15
100
AcDbEntity
 67
     1
  8
0
100
AcDbBlockBegin
  2
*PAPER_SPACE
 70
     0
 10
0.0
 20
0.0
 30
0.0
  3
*PAPER_SPACE
  1

  0
ENDBLK
  5
17
330
15
100
AcDbEntity
 67
     1
  8
0
100
AcDbBlockEnd
  0
ENDSEC
  0
SECTION
  2
ENTITIES
  0
LWPOLYLINE
  5
20
330
18
100
AcDbEntity
  8
KRABICKA
 62
    85
100
AcDbPolyline
 90
        8
 70
     1
 43
0.0
 10
204.4982386233625
 20
131.0145049358386
 10
234.4982386233625
 20
131.0145049358386
 10
244.4982386233625
 20
141.0145049358386
 10
244.4982386233625
 20
171.0145049358386
 10
234.4982386233625
 20
181.0145049358386
 10
204.4982386233625
 20
181.0145049358386
 10
194.4982386233625
 20
171.0145049358386
 10
194.4982386233625
 20
141.0145049358386
  0
CIRCLE
  5
23
330
18
100
AcDbEntity
  8
KRABICKA
100
AcDbCircle
 10
196.552695847889
 20
143.0145049358386
 30
0.0
 40
1.5
  0
CIRCLE
  5
24
330
18
100
AcDbEntity
  8
KRABICKA
100
AcDbCircle
 10
242.2765333520818
 20
143.0145049358386
 30
0.0
 40
1.5
  0
CIRCLE
  5
27
330
18
100
AcDbEntity
  8
KRABICKA
100
AcDbCircle
 10
196.552695847889
 20
169.0145049358386
 30
0.0
 40
1.5
  0
CIRCLE
  5
28
330
18
100
AcDbEntity
  8
KRABICKA
100
AcDbCircle
 10
242.2765333520818
 20
169.0145049358386
 30
0.0
 40
1.5
  0
CIRCLE
  5
29
330
18
100
AcDbEntity
  8
KRABICKA
 62
     1
100
AcDbCircle
 10
219.4982386233625
 20
139.5145049358386
 30
0.0
 40
2.5
  0
LWPOLYLINE
  5
2A
330
18
100
AcDbEntity
  8
SVORKY
100
AcDbPolyline
 90
        4
 70
     1
 43
0.0
 10
222.9386332520643
 20
131.5906568228645
 10
227.9386332520644
 20
131.5906568228645
 10
227.9386332520644
 20
144.5906568228645
 10
222.9386332520643
 20
144.5906568228645
  0
LWPOLYLINE
  5
2B
330
18
100
AcDbEntity
  8
SVORKY
100
AcDbPolyline
 90
        4
 70
     1
 43
0.0
 10
227.9386332520644
 20
131.5906568228645
 10
232.9386332520643
 20
131.5906568228645
 10
232.9386332520643
 20
144.5906568228645
 10
227.9386332520644
 20
144.5906568228645
  0
LWPOLYLINE
  5
2C
330
18
100
AcDbEntity
  8
SVORKY
100
AcDbPolyline
 90
        4
 70
     1
 43
0.0
 10
232.9386332520643
 20
131.5906568228645
 10
233.9386332520644
 20
131.5906568228645
 10
233.9386332520644
 20
144.5906568228645
 10
232.9386332520643
 20
144.5906568228645
  0
LINE
  5
2E
330
18
100
AcDbEntity
  8
SVORKY
100
AcDbLine
 10
233.9386332520644
 20
143.3906568228645
 30
0.0
 11
222.9386332520643
 21
143.3906568228645
 31
0.0
  0
LWPOLYLINE
  5
2F
330
18
100
AcDbEntity
  8
SVORKY
 62
     7
100
AcDbPolyline
 90
        4
 70
     1
 43
0.0
 10
223.6886332520644
 20
141.1949182394378
 10
227.1886332520643
 20
141.1949182394378
 10
227.1886332520643
 20
143.1949182394378
 10
223.6886332520644
 20
143.1949182394378
  0
LWPOLYLINE
  5
30
330
18
100
AcDbEntity
  8
SVORKY
 62
     7
100
AcDbPolyline
 90
        4
 70
     1
 43
0.0
 10
228.6886332520643
 20
141.1949182394378
 10
232.1886332520644
 20
141.1949182394378
 10
232.1886332520644
 20
143.1949182394378
 10
228.6886332520643
 20
143.1949182394378
  0
LINE
  5
31
330
18
100
AcDbEntity
  8
SVORKY
100
AcDbLine
 10
222.9386332520643
 20
140.9017157625887
 30
0.0
 11
233.9386332520644
 21
140.9017157625887
 31
0.0
  0
LWPOLYLINE
  5
34
330
18
100
AcDbEntity
  8
KRABICKA
100
AcDbPolyline
 90
        8
 70
     1
 43
0.0
 10
235.7442496533417
 20
137.9059538707657
 10
236.7442496533417
 20
137.9059538707657
 10
237.2442496533417
 20
138.4059538707657
 10
237.2442496533417
 20
139.9059538707657
 10
236.7442496533417
 20
140.4059538707657
 10
235.7442496533417
 20
140.4059538707657
 10
235.2442496533417
 20
139.9059538707657
 10
235.2442496533417
 20
138.4059538707657
  0
LWPOLYLINE
  5
37
330
18
100
AcDbEntity
  8
KRABICKA
100
AcDbPolyline
 90
        4
 70
     1
 43
0.0
 10
235.9942496533417
 20
138.9059538707657
 10
236.4942496533417
 20
138.9059538707657
 10
236.4942496533417
 20
139.4059538707657
 10
235.9942496533417
 20
139.4059538707657
  0
LWPOLYLINE
  5
39
330
18
100
AcDbEntity
  8
KRABICKA
100
AcDbPolyline
 90
        8
 70
     1
 43
0.0
 10
235.7442496533417
 20
135.4059538707657
 10
236.7442496533417
 20
135.4059538707657
 10
237.2442496533417
 20
135.9059538707657
 10
237.2442496533417
 20
137.4059538707657
 10
236.7442496533417
 20
137.9059538707657
 10
235.7442496533417
 20
137.9059538707657
 10
235.2442496533417
 20
137.4059538707657
 10
235.2442496533417
 20
135.9059538707657
  0
LWPOLYLINE
  5
3A
330
18
100
AcDbEntity
  8
KRABICKA
100
AcDbPolyline
 90
        4
 70
     1
 43
0.0
 10
235.9942496533417
 20
136.4059538707657
 10
236.4942496533417
 20
136.4059538707657
 10
236.4942496533417
 20
136.9059538707657
 10
235.9942496533417
 20
136.9059538707657
  0
CIRCLE
  5
3B
330
18
100
AcDbEntity
  8
KRABICKA
 62
     1
100
AcDbCircle
 10
207.6802324673046
 20
175.9230890918273
 30
0.0
 40
5.0
  0
CIRCLE
  5
3C
330
18
100
AcDbEntity
  8
KRABICKA
 62
     1
100
AcDbCircle
 10
239.4982386233625
 20
162.4826877300932
 30
0.0
 40
5.0
  0
CIRCLE
  5
3D
330
18
100
AcDbEntity
  8
KRABICKA
100
AcDbCircle
 10
217.5431442873021
 20
175.9230890918273
 30
0.0
 40
3.75
  0
LWPOLYLINE
  5
3E
330
18
100
AcDbEntity
  8
SVORKY
100
AcDbPolyline
 90
        4
 70
     1
 43
0.0
 10
233.9386332520643
 20
180.2752191685376
 10
228.9386332520643
 20
180.2752191685376
 10
228.9386332520643
 20
167.2752191685376
 10
233.9386332520643
 20
167.2752191685376
  0
LWPOLYLINE
  5
3F
330
18
100
AcDbEntity
  8
SVORKY
 62
     7
100
AcDbPolyline
 90
        4
 70
     1
 43
0.0
 10
233.1886332520643
 20
170.6709577519643
 10
229.6886332520643
 20
170.6709577519643
 10
229.6886332520643
 20
168.6709577519643
 10
233.1886332520643
 20
168.6709577519643
  0
LINE
  5
40
330
18
100
AcDbEntity
  8
SVORKY
100
AcDbLine
 10
233.9386332520643
 20
170.9641602288133
 30
0.0
 11
222.9386332520643
 21
170.9641602288133
 31
0.0
  0
LINE
  5
41
330
18
100
AcDbEntity
  8
SVORKY
100
AcDbLine
 10
222.9386332520643
 20
168.4752191685376
 30
0.0
 11
233.9386332520643
 21
168.4752191685376
 31
0.0
  0
LWPOLYLINE
  5
42
330
18
100
AcDbEntity
  8
SVORKY
100
AcDbPolyline
 90
        4
 70
     1
 43
0.0
 10
223.9386332520643
 20
180.2752191685376
 10
222.9386332520643
 20
180.2752191685376
 10
222.9386332520643
 20
167.2752191685376
 10
223.9386332520643
 20
167.2752191685376
  0
LWPOLYLINE
  5
43
330
18
100
AcDbEntity
  8
SVORKY
100
AcDbPolyline
 90
        4
 70
     1
 43
0.0
 10
228.9386332520643
 20
180.2752191685376
 10
223.9386332520643
 20
180.2752191685376
 10
223.9386332520643
 20
167.2752191685376
 10
228.9386332520643
 20
167.2752191685376
  0
LWPOLYLINE
  5
44
330
18
100
AcDbEntity
  8
SVORKY
 62
     7
100
AcDbPolyline
 90
        4
 70
     1
 43
0.0
 10
228.1886332520643
 20
170.6709577519643
 10
224.6886332520643
 20
170.6709577519643
 10
224.6886332520643
 20
168.6709577519643
 10
228.1886332520643
 20
168.6709577519643
  0
CIRCLE
  5
4A
330
18
100
AcDbEntity
  8
KRABICKA
100
AcDbCircle
 10
215.0543229958045
 20
149.3329964718981
 30
0.0
 40
0.75
  0
CIRCLE
  5
4B
330
18
100
AcDbEntity
  8
KRABICKA
100
AcDbCircle
 10
212.5543229958045
 20
149.3329964718981
 30
0.0
 40
0.75
  0
CIRCLE
  5
4C
330
18
100
AcDbEntity
  8
KRABICKA
100
AcDbCircle
 10
215.0543229958045
 20
156.8329964718981
 30
0.0
 40
0.75
  0
CIRCLE
  5
4D
330
18
100
AcDbEntity
  8
KRABICKA
100
AcDbCircle
 10
212.5543229958045
 20
156.8329964718981
 30
0.0
 40
0.75
  0
CIRCLE
  5
4E
330
18
100
AcDbEntity
  8
KRABICKA
100
AcDbCircle
 10
222.5543229958045
 20
149.3329964718981
 30
0.0
 40
0.75
  0
CIRCLE
  5
4F
330
18
100
AcDbEntity
  8
KRABICKA
100
AcDbCircle
 10
225.0543229958045
 20
149.3329964718981
 30
0.0
 40
0.75
  0
CIRCLE
  5
50
330
18
100
AcDbEntity
  8
KRABICKA
100
AcDbCircle
 10
220.0543229958046
 20
149.3329964718981
 30
0.0
 40
0.75
  0
CIRCLE
  5
51
330
18
100
AcDbEntity
  8
KRABICKA
100
AcDbCircle
 10
217.5543229958046
 20
149.3329964718981
 30
0.0
 40
0.75
  0
CIRCLE
  5
52
330
18
100
AcDbEntity
  8
KRABICKA
100
AcDbCircle
 10
220.0543229958046
 20
156.8329964718981
 30
0.0
 40
0.75
  0
CIRCLE
  5
53
330
18
100
AcDbEntity
  8
KRABICKA
100
AcDbCircle
 10
217.5543229958046
 20
156.8329964718981
 30
0.0
 40
0.75
  0
CIRCLE
  5
54
330
18
100
AcDbEntity
  8
KRABICKA
100
AcDbCircle
 10
222.5543229958045
 20
156.8329964718981
 30
0.0
 40
0.75
  0
CIRCLE
  5
55
330
18
100
AcDbEntity
  8
KRABICKA
100
AcDbCircle
 10
225.0543229958045
 20
156.8329964718981
 30
0.0
 40
0.75
  0
CIRCLE
  5
56
330
18
100
AcDbEntity
  8
KRABICKA
100
AcDbCircle
 10
227.5543229958045
 20
149.3329964718981
 30
0.0
 40
0.75
  0
CIRCLE
  5
57
330
18
100
AcDbEntity
  8
KRABICKA
100
AcDbCircle
 10
230.0543229958046
 20
149.3329964718981
 30
0.0
 40
0.75
  0
CIRCLE
  5
58
330
18
100
AcDbEntity
  8
KRABICKA
100
AcDbCircle
 10
235.0543229958045
 20
149.3329964718981
 30
0.0
 40
0.75
  0
CIRCLE
  5
59
330
18
100
AcDbEntity
  8
KRABICKA
100
AcDbCircle
 10
232.5543229958046
 20
149.3329964718981
 30
0.0
 40
0.75
  0
CIRCLE
  5
5A
330
18
100
AcDbEntity
  8
KRABICKA
100
AcDbCircle
 10
227.5543229958045
 20
156.8329964718981
 30
0.0
 40
0.75
  0
CIRCLE
  5
5B
330
18
100
AcDbEntity
  8
KRABICKA
100
AcDbCircle
 10
232.5543229958046
 20
156.8329964718981
 30
0.0
 40
0.75
  0
CIRCLE
  5
5C
330
18
100
AcDbEntity
  8
KRABICKA
100
AcDbCircle
 10
230.0543229958046
 20
156.8329964718981
 30
0.0
 40
0.75
  0
CIRCLE
  5
5D
330
18
100
AcDbEntity
  8
KRABICKA
100
AcDbCircle
 10
235.0543229958045
 20
156.8329964718981
 30
0.0
 40
0.75
  0
LWPOLYLINE
  5
5E
330
18
100
AcDbEntity
  8
KRABICKA
100
AcDbPolyline
 90
        4
 70
     1
 43
0.0
 10
211.2861805321304
 20
158.074814791431
 10
236.1310947059801
 20
158.074814791431
 10
236.1310947059801
 20
155.5886887271209
 10
211.2861805321304
 20
155.5886887271209
  0
LWPOLYLINE
  5
5F
330
18
100
AcDbEntity
  8
KRABICKA
100
AcDbPolyline
 90
        4
 70
     1
 43
0.0
 10
211.2861805321304
 20
150.574814791431
 10
236.1310947059801
 20
150.574814791431
 10
236.1310947059801
 20
148.088688727121
 10
211.2861805321304
 20
148.088688727121
  0
LINE
  5
60
330
18
100
AcDbEntity
  8
KRABICKA
100
AcDbLine
 10
211.2861805321304
 20
155.5886887271209
 30
0.0
 11
211.2861805321304
 21
150.574814791431
 31
0.0
  0
LINE
  5
61
330
18
100
AcDbEntity
  8
KRABICKA
100
AcDbLine
 10
235.0546108175722
 20
155.5886887271209
 30
0.0
 11
235.0546108175722
 21
150.574814791431
 31
0.0
  0
LWPOLYLINE
  5
62
330
18
100
AcDbEntity
  8
KRABICKA
100
AcDbPolyline
 90
        4
 70
     1
 43
0.0
 10
208.3619033284164
 20
134.6508402307847
 10
208.3619033284164
 20
164.4957544046344
 10
210.8480293927265
 20
164.4957544046344
 10
210.8480293927265
 20
134.6508402307847
  0
CIRCLE
  5
63
330
18
100
AcDbEntity
  8
KRABICKA
100
AcDbCircle
 10
209.6037216479494
 20
160.9189826944589
 30
0.0
 40
0.75
  0
CIRCLE
  5
64
330
18
100
AcDbEntity
  8
KRABICKA
100
AcDbCircle
 10
209.6037216479494
 20
163.4189826944589
 30
0.0
 40
0.75
  0
CIRCLE
  5
65
330
18
100
AcDbEntity
  8
KRABICKA
100
AcDbCircle
 10
209.6037216479494
 20
158.4189826944589
 30
0.0
 40
0.75
  0
CIRCLE
  5
66
330
18
100
AcDbEntity
  8
KRABICKA
100
AcDbCircle
 10
209.6037216479494
 20
155.9189826944589
 30
0.0
 40
0.75
  0
CIRCLE
  5
67
330
18
100
AcDbEntity
  8
KRABICKA
100
AcDbCircle
 10
209.6037216479494
 20
145.9189826944589
 30
0.0
 40
0.75
  0
CIRCLE
  5
68
330
18
100
AcDbEntity
  8
KRABICKA
100
AcDbCircle
 10
209.6037216479494
 20
148.4189826944589
 30
0.0
 40
0.75
  0
CIRCLE
  5
69
330
18
100
AcDbEntity
  8
KRABICKA
100
AcDbCircle
 10
209.6037216479494
 20
153.4189826944589
 30
0.0
 40
0.75
  0
CIRCLE
  5
6A
330
18
100
AcDbEntity
  8
KRABICKA
100
AcDbCircle
 10
209.6037216479494
 20
150.9189826944589
 30
0.0
 40
0.75
  0
CIRCLE
  5
6B
330
18
100
AcDbEntity
  8
KRABICKA
100
AcDbCircle
 10
209.6037216479494
 20
140.9189826944589
 30
0.0
 40
0.75
  0
CIRCLE
  5
6C
330
18
100
AcDbEntity
  8
KRABICKA
100
AcDbCircle
 10
209.6037216479494
 20
143.4189826944589
 30
0.0
 40
0.75
  0
CIRCLE
  5
6D
330
18
100
AcDbEntity
  8
KRABICKA
100
AcDbCircle
 10
209.6037216479494
 20
138.4189826944589
 30
0.0
 40
0.75
  0
CIRCLE
  5
6E
330
18
100
AcDbEntity
  8
KRABICKA
100
AcDbCircle
 10
209.6037216479494
 20
135.9189826944589
 30
0.0
 40
0.75
  0
LWPOLYLINE
  5
6F
330
18
100
AcDbEntity
  8
KRABICKA
100
AcDbPolyline
 90
        4
 70
     1
 43
0.0
 10
200.8619033284165
 20
134.6508402307847
 10
200.8619033284165
 20
164.4957544046344
 10
203.3480293927265
 20
164.4957544046344
 10
203.3480293927265
 20
134.6508402307847
  0
CIRCLE
  5
70
330
18
100
AcDbEntity
  8
KRABICKA
100
AcDbCircle
 10
202.1037216479494
 20
138.4189826944589
 30
0.0
 40
0.75
  0
LINE
  5
71
330
18
100
AcDbEntity
  8
KRABICKA
100
AcDbLine
 10
203.3480293927265
 20
134.6508402307847
 30
0.0
 11
208.3619033284164
 21
134.6508402307847
 31
0.0
  0
CIRCLE
  5
72
330
18
100
AcDbEntity
  8
KRABICKA
100
AcDbCircle
 10
202.1037216479494
 20
135.9189826944589
 30
0.0
 40
0.75
  0
CIRCLE
  5
73
330
18
100
AcDbEntity
  8
KRABICKA
100
AcDbCircle
 10
202.1037216479494
 20
140.9189826944589
 30
0.0
 40
0.75
  0
CIRCLE
  5
74
330
18
100
AcDbEntity
  8
KRABICKA
100
AcDbCircle
 10
202.1037216479494
 20
145.9189826944589
 30
0.0
 40
0.75
  0
CIRCLE
  5
75
330
18
100
AcDbEntity
  8
KRABICKA
100
AcDbCircle
 10
202.1037216479494
 20
143.4189826944589
 30
0.0
 40
0.75
  0
CIRCLE
  5
76
330
18
100
AcDbEntity
  8
KRABICKA
100
AcDbCircle
 10
202.1037216479494
 20
150.9189826944589
 30
0.0
 40
0.75
  0
CIRCLE
  5
77
330
18
100
AcDbEntity
  8
KRABICKA
100
AcDbCircle
 10
202.1037216479494
 20
148.4189826944589
 30
0.0
 40
0.75
  0
CIRCLE
  5
78
330
18
100
AcDbEntity
  8
KRABICKA
100
AcDbCircle
 10
202.1037216479494
 20
153.4189826944589
 30
0.0
 40
0.75
  0
CIRCLE
  5
79
330
18
100
AcDbEntity
  8
KRABICKA
100
AcDbCircle
 10
202.1037216479494
 20
163.4189826944589
 30
0.0
 40
0.75
  0
CIRCLE
  5
7A
330
18
100
AcDbEntity
  8
KRABICKA
100
AcDbCircle
 10
202.1037216479494
 20
158.4189826944589
 30
0.0
 40
0.75
  0
CIRCLE
  5
7B
330
18
100
AcDbEntity
  8
KRABICKA
100
AcDbCircle
 10
202.1037216479494
 20
155.9189826944589
 30
0.0
 40
0.75
  0
CIRCLE
  5
7C
330
18
100
AcDbEntity
  8
KRABICKA
100
AcDbCircle
 10
202.1037216479494
 20
160.9189826944589
 30
0.0
 40
0.75
  0
LINE
  5
7D
330
18
100
AcDbEntity
  8
KRABICKA
100
AcDbLine
 10
203.3480293927265
 20
163.4192705162265
 30
0.0
 11
208.3619033284164
 21
163.4192705162265
 31
0.0
  0
ARC
  5
7F
330
18
100
AcDbEntity
  8
KRABICKA
100
AcDbCircle
 10
223.8188106314381
 20
160.2798824198356
 30
0.0
 40
1.35
100
AcDbArc
 50
90.0
 51
270.0
  0
ARC
  5
80
330
18
100
AcDbEntity
  8
KRABICKA
100
AcDbCircle
 10
231.0188106314381
 20
160.2798824198356
 30
0.0
 40
1.35
100
AcDbArc
 50
270.0
 51
90.0
  0
LINE
  5
81
330
18
100
AcDbEntity
  8
KRABICKA
100
AcDbLine
 10
223.8188106314381
 20
158.9298824198356
 30
0.0
 11
231.0188106314381
 21
158.9298824198356
 31
0.0
  0
LINE
  5
83
330
18
100
AcDbEntity
  8
KRABICKA
100
AcDbLine
 10
231.0188106314381
 20
161.6298824198356
 30
0.0
 11
223.8188106314381
 21
161.6298824198356
 31
0.0
  0
ARC
  5
89
330
18
100
AcDbEntity
  8
KRABICKA
100
AcDbCircle
 10
223.8188106314381
 20
160.2798824198356
 30
0.0
 40
1.65
100
AcDbArc
 50
90.0
 51
270.0
  0
ARC
  5
8A
330
18
100
AcDbEntity
  8
KRABICKA
100
AcDbCircle
 10
231.0188106314381
 20
160.2798824198356
 30
0.0
 40
1.65
100
AcDbArc
 50
270.0
 51
90.0
  0
LINE
  5
8B
330
18
100
AcDbEntity
  8
KRABICKA
100
AcDbLine
 10
231.0188106314381
 20
161.9298824198356
 30
0.0
 11
223.8188106314381
 21
161.9298824198356
 31
0.0
  0
LINE
  5
8C
330
18
100
AcDbEntity
  8
KRABICKA
100
AcDbLine
 10
223.8188106314381
 20
158.6298824198356
 30
0.0
 11
231.0188106314381
 21
158.6298824198356
 31
0.0
  0
CIRCLE
  5
8D
330
18
100
AcDbEntity
  8
KRABICKA
100
AcDbCircle
 10
219.2210667188116
 20
159.9099206776916
 30
0.0
 40
1.0
  0
CIRCLE
  5
8E
330
18
100
AcDbEntity
  8
KRABICKA
100
AcDbCircle
 10
198.3668189929149
 20
147.6898430430105
 30
0.0
 40
1.5
  0
ARC
  5
90
330
18
100
AcDbEntity
  8
KRABICKA
100
AcDbCircle
 10
203.5941150351297
 20
168.358173179541
 30
0.0
 40
2.624078601481471
100
AcDbArc
 50
270.0
 51
90.0
  0
CIRCLE
  5
91
330
18
100
AcDbEntity
  8
KRABICKA
100
AcDbCircle
 10
203.5941150351297
 20
168.358173179541
 30
0.0
 40
1.320267489779709
  0
LINE
  5
92
330
18
100
AcDbEntity
  8
KRABICKA
100
AcDbLine
 10
200.6480512794553
 20
170.9822517810225
 30
0.0
 11
203.5941150351297
 21
170.9822517810225
 31
0.0
  0
LINE
  5
94
330
18
100
AcDbEntity
  8
KRABICKA
100
AcDbLine
 10
203.5941150351297
 20
165.7340945780595
 30
0.0
 11
200.6480512794553
 21
165.7340945780595
 31
0.0
  0
LINE
  5
95
330
18
100
AcDbEntity
  8
KRABICKA
100
AcDbLine
 10
200.6480512794553
 20
165.7340945780595
 30
0.0
 11
200.6480512794553
 21
170.9822517810225
 31
0.0
  0
LWPOLYLINE
  5
97
330
18
100
AcDbEntity
  8
KRABICKA
100
AcDbPolyline
 90
        4
 70
     0
 43
0.0
 10
203.5568440667369
 20
167.8504898215996
 10
203.0572848149857
 20
167.6259764918462
 10
202.8497079432132
 20
167.8335533636187
 10
203.3743318468352
 20
168.3581772672407
  0
LWPOLYLINE
  5
98
330
18
100
AcDbEntity
  8
KRABICKA
100
AcDbPolyline
 90
        4
 70
     0
 43
0.0
 10
203.3743318468352
 20
168.3581772672407
 10
202.8497079432132
 20
168.8828011708627
 10
203.0572848149857
 20
169.0903780426351
 10
203.5819087186076
 20
168.5657541390131
  0
LWPOLYLINE
  5
9C
330
18
100
AcDbEntity
  8
KRABICKA
100
AcDbPolyline
 90
        4
 70
     0
 43
0.0
 10
203.5819087186076
 20
168.5657541390131
 10
204.1065326222296
 20
169.0903780426351
 10
204.3141094940021
 20
168.8828011708626
 10
204.0756448922487
 20
168.3692906471114
  0
LWPOLYLINE
  5
9D
330
18
100
AcDbEntity
  8
KRABICKA
100
AcDbPolyline
 90
        4
 70
     0
 43
0.0
 10
204.0756448922487
 20
168.3692906471114
 10
204.3141094940021
 20
167.8335533636188
 10
204.1065326222296
 20
167.6259764918462
 10
203.5568440667369
 20
167.8504898215996
  0
CIRCLE
  5
9E
330
18
100
AcDbEntity
  8
KRABICKA
100
AcDbCircle
 10
207.6802324673046
 20
175.9230890918273
 30
0.0
 40
3.0
  0
CIRCLE
  5
9F
330
18
100
AcDbEntity
  8
KRABICKA
100
AcDbCircle
 10
239.4982386233625
 20
162.4826877300932
 30
0.0
 40
3.0
  0
CIRCLE
  5
A0
330
18
100
AcDbEntity
  8
KRABICKA
100
AcDbCircle
 10
217.5431442873021
 20
175.9230890918273
 30
0.0
 40
2.75
  0
LWPOLYLINE
  5
12F
102
{ACAD_REACTORS
330
2AB
102
}
330
18
100
AcDbEntity
  8
KRABICKA
100
AcDbPolyline
 90
        8
 70
     1
 43
0.0
 10
204.0840250609894
 20
130.0145049358386
 10
234.9124521857356
 20
130.0145049358386
 10
245.4982386233625
 20
140.6002913734655
 10
245.4982386233625
 20
171.4287184982117
 10
234.9124521857356
 20
182.0145049358386
 10
204.0840250609894
 20
182.0145049358386
 10
193.4982386233625
 20
171.4287184982117
 10
193.4982386233625
 20
140.6002913734655
  0
LWPOLYLINE
  5
130
102
{ACAD_REACTORS
330
2AB
102
}
330
18
100
AcDbEntity
  8
KRABICKA
100
AcDbPolyline
 90
        8
 70
     1
 43
0.0
 10
196.2724330233625
 20
126.0145060358386
 10
242.7240442233625
 20
126.0145060358386
 42
0.4142135623730951
 10
249.4982375233625
 20
132.7886993358386
 10
249.4982375233625
 20
179.2403105358386
 42
0.4142135623730951
 10
242.7240442233625
 20
186.0145038358386
 10
196.2724330233625
 20
186.0145038358386
 42
0.4142135623730951
 10
189.4982397233625
 20
179.2403105358386
 10
189.4982397233625
 20
132.7886993358386
 42
0.4142135623730951
  0
CIRCLE
  5
134
102
{ACAD_REACTORS
330
2AB
102
}
330
18
100
AcDbEntity
  8
KRABICKA
100
AcDbCircle
 10
195.2555979362432
 20
180.2571456229579
 30
0.0
 40
2.0
  0
CIRCLE
  5
135
102
{ACAD_REACTORS
330
2AB
102
}
330
18
100
AcDbEntity
  8
KRABICKA
100
AcDbCircle
 10
243.7408793104818
 20
131.7718642487194
 30
0.0
 40
2.0
  0
CIRCLE
  5
138
102
{ACAD_REACTORS
330
2AB
102
}
330
18
100
AcDbEntity
  8
KRABICKA
100
AcDbCircle
 10
195.2555979362432
 20
131.7718642487194
 30
0.0
 40
2.0
  0
CIRCLE
  5
140
102
{ACAD_REACTORS
330
2AB
102
}
330
18
100
AcDbEntity
  8
KRABICKA
100
AcDbCircle
 10
243.7408793104818
 20
180.2571456229579
 30
0.0
 40
2.0
  0
LINE
  5
143
330
18
100
AcDbEntity
  8
KRABICKA
100
AcDbLine
 10
189.4982397233625
 20
145.5145049358386
 30
0.0
 11
184.4982397233625
 21
145.5145049358386
 31
0.0
  0
LINE
  5
144
330
18
100
AcDbEntity
  8
KRABICKA
100
AcDbLine
 10
189.4982397233625
 20
166.5145049358386
 30
0.0
 11
184.4982397233625
 21
166.5145049358386
 31
0.0
  0
LINE
  5
146
330
18
100
AcDbEntity
  8
KRABICKA
100
AcDbLine
 10
189.4982397233625
 20
161.5145049358386
 30
0.0
 11
184.4982397233625
 21
161.5145049358386
 31
0.0
  0
LINE
  5
147
330
18
100
AcDbEntity
  8
KRABICKA
100
AcDbLine
 10
189.4982397233625
 20
150.5145049358386
 30
0.0
 11
184.4982397233625
 21
150.5145049358386
 31
0.0
  0
LINE
  5
149
330
18
100
AcDbEntity
  8
KRABICKA
100
AcDbLine
 10
183.9982397233625
 20
164.0145049358386
 30
0.0
 11
183.9982397233625
 21
148.0145049358386
 31
0.0
  0
LINE
  5
14B
330
18
100
AcDbEntity
  8
KRABICKA
100
AcDbLine
 10
184.4982397233625
 20
166.5145049358386
 30
0.0
 11
183.9982397233625
 21
164.0145049358386
 31
0.0
  0
LINE
  5
14C
330
18
100
AcDbEntity
  8
KRABICKA
100
AcDbLine
 10
183.9982397233625
 20
148.0145049358386
 30
0.0
 11
184.4982397233625
 21
145.5145049358386
 31
0.0
  0
LINE
  5
14D
330
18
100
AcDbEntity
  8
KRABICKA
100
AcDbLine
 10
183.9982397233625
 20
148.0145049358386
 30
0.0
 11
184.4982397233625
 21
150.5145049358386
 31
0.0
  0
LINE
  5
14E
330
18
100
AcDbEntity
  8
KRABICKA
100
AcDbLine
 10
184.4982397233625
 20
150.5145049358386
 30
0.0
 11
183.9982397233625
 21
156.0145049358386
 31
0.0
  0
LINE
  5
14F
330
18
100
AcDbEntity
  8
KRABICKA
100
AcDbLine
 10
183.9982397233625
 20
156.0145049358386
 30
0.0
 11
184.4982397233625
 21
161.5145049358386
 31
0.0
  0
LINE
  5
150
330
18
100
AcDbEntity
  8
KRABICKA
100
AcDbLine
 10
184.4982397233625
 20
161.5145049358386
 30
0.0
 11
183.9982397233625
 21
164.0145049358386
 31
0.0
  0
LINE
  5
151
330
18
100
AcDbEntity
  8
KRABICKA
100
AcDbLine
 10
172.394038623636
 20
148.0145049358386
 30
0.0
 11
172.894038623636
 21
150.5145049358386
 31
0.0
  0
LINE
  5
152
330
18
100
AcDbEntity
  8
KRABICKA
100
AcDbLine
 10
172.394038623636
 20
164.0145049358386
 30
0.0
 11
172.394038623636
 21
148.0145049358386
 31
0.0
  0
LINE
  5
153
330
18
100
AcDbEntity
  8
KRABICKA
100
AcDbLine
 10
181.894038623636
 20
145.5145049358386
 30
0.0
 11
172.894038623636
 21
145.5145049358386
 31
0.0
  0
LINE
  5
154
330
18
100
AcDbEntity
  8
KRABICKA
100
AcDbLine
 10
172.394038623636
 20
148.0145049358386
 30
0.0
 11
172.894038623636
 21
145.5145049358386
 31
0.0
  0
LINE
  5
155
330
18
100
AcDbEntity
  8
KRABICKA
100
AcDbLine
 10
172.394038623636
 20
156.0145049358386
 30
0.0
 11
172.894038623636
 21
161.5145049358386
 31
0.0
  0
LINE
  5
156
330
18
100
AcDbEntity
  8
KRABICKA
100
AcDbLine
 10
181.894038623636
 20
150.5145049358386
 30
0.0
 11
172.894038623636
 21
150.5145049358386
 31
0.0
  0
LINE
  5
157
330
18
100
AcDbEntity
  8
KRABICKA
100
AcDbLine
 10
172.894038623636
 20
150.5145049358386
 30
0.0
 11
172.394038623636
 21
156.0145049358386
 31
0.0
  0
LINE
  5
158
330
18
100
AcDbEntity
  8
KRABICKA
100
AcDbLine
 10
181.894038623636
 20
161.5145049358386
 30
0.0
 11
172.894038623636
 21
161.5145049358386
 31
0.0
  0
LINE
  5
159
330
18
100
AcDbEntity
  8
KRABICKA
100
AcDbLine
 10
181.894038623636
 20
166.5145049358386
 30
0.0
 11
172.894038623636
 21
166.5145049358386
 31
0.0
  0
LINE
  5
15A
330
18
100
AcDbEntity
  8
KRABICKA
100
AcDbLine
 10
172.894038623636
 20
166.5145049358386
 30
0.0
 11
172.394038623636
 21
164.0145049358386
 31
0.0
  0
LINE
  5
15B
330
18
100
AcDbEntity
  8
KRABICKA
100
AcDbLine
 10
172.894038623636
 20
161.5145049358386
 30
0.0
 11
172.394038623636
 21
164.0145049358386
 31
0.0
  0
LINE
  5
15C
330
18
100
AcDbEntity
  8
KRABICKA
100
AcDbLine
 10
181.894038623636
 20
166.5145049358386
 30
0.0
 11
181.894038623636
 21
145.5145049358386
 31
0.0
  0
LINE
  5
15D
330
18
100
AcDbEntity
  8
KRABICKA
100
AcDbLine
 10
168.394038623636
 20
161.0145049358386
 30
0.0
 11
168.394038623636
 21
151.0145049358386
 31
0.0
  0
LINE
  5
15E
330
18
100
AcDbEntity
  8
KRABICKA
100
AcDbLine
 10
171.394038623636
 20
164.0145049358386
 30
0.0
 11
172.394038623636
 21
164.0145049358386
 31
0.0
  0
LINE
  5
15F
330
18
100
AcDbEntity
  8
KRABICKA
100
AcDbLine
 10
171.394038623636
 20
148.0145049358386
 30
0.0
 11
172.394038623636
 21
148.0145049358386
 31
0.0
  0
ARC
  5
162
330
18
100
AcDbEntity
  8
KRABICKA
100
AcDbCircle
 10
171.394038623636
 20
161.0145049358386
 30
0.0
 40
3.0
100
AcDbArc
 50
90.0
 51
180.0
  0
ARC
  5
163
330
18
100
AcDbEntity
  8
KRABICKA
100
AcDbCircle
 10
171.394038623636
 20
151.0145049358386
 30
0.0
 40
3.0
100
AcDbArc
 50
180.0
 51
270.0
  0
LINE
  5
164
330
18
100
AcDbEntity
  8
KRABICKA
100
AcDbLine
 10
183.9982397233625
 20
164.0145049358386
 30
0.0
 11
181.894038623636
 21
164.0145049358386
 31
0.0
  0
LINE
  5
165
330
18
100
AcDbEntity
  8
KRABICKA
100
AcDbLine
 10
183.9982397233625
 20
148.0145049358386
 30
0.0
 11
181.894038623636
 21
148.0145049358386
 31
0.0
  0
LINE
  5
166
330
18
100
AcDbEntity
  8
KRABICKA
100
AcDbLine
 10
183.9982397233625
 20
162.0145049358386
 30
0.0
 11
181.894038623636
 21
162.0145049358386
 31
0.0
  0
LINE
  5
167
330
18
100
AcDbEntity
  8
KRABICKA
100
AcDbLine
 10
183.9982397233625
 20
150.0145049358386
 30
0.0
 11
181.894038623636
 21
150.0145049358386
 31
0.0
  0
LINE
  5
168
330
18
100
AcDbEntity
  8
KRABICKA
100
AcDbLine
 10
266.6024386230889
 20
164.0145049358386
 30
0.0
 11
266.6024386230889
 21
148.0145049358386
 31
0.0
  0
LINE
  5
169
330
18
100
AcDbEntity
  8
KRABICKA
100
AcDbLine
 10
266.6024386230889
 20
148.0145049358386
 30
0.0
 11
266.1024386230889
 21
150.5145049358386
 31
0.0
  0
LINE
  5
16A
330
18
100
AcDbEntity
  8
KRABICKA
100
AcDbLine
 10
257.1024386230889
 20
166.5145049358386
 30
0.0
 11
257.1024386230889
 21
145.5145049358386
 31
0.0
  0
ARC
  5
16B
330
18
100
AcDbEntity
  8
KRABICKA
100
AcDbCircle
 10
267.6024386230889
 20
151.0145049358386
 30
0.0
 40
3.0
100
AcDbArc
 50
270.0
 51
0.000000000000007
  0
LINE
  5
16C
330
18
100
AcDbEntity
  8
KRABICKA
100
AcDbLine
 10
254.9982375233625
 20
148.0145049358386
 30
0.0
 11
254.4982375233625
 21
150.5145049358386
 31
0.0
  0
LINE
  5
16D
330
18
100
AcDbEntity
  8
KRABICKA
100
AcDbLine
 10
254.9982375233625
 20
164.0145049358386
 30
0.0
 11
254.9982375233625
 21
148.0145049358386
 31
0.0
  0
LINE
  5
16E
330
18
100
AcDbEntity
  8
KRABICKA
100
AcDbLine
 10
257.1024386230889
 20
145.5145049358386
 30
0.0
 11
266.1024386230889
 21
145.5145049358386
 31
0.0
  0
LINE
  5
16F
330
18
100
AcDbEntity
  8
KRABICKA
100
AcDbLine
 10
266.6024386230889
 20
148.0145049358386
 30
0.0
 11
266.1024386230889
 21
145.5145049358386
 31
0.0
  0
LINE
  5
170
330
18
100
AcDbEntity
  8
KRABICKA
100
AcDbLine
 10
267.6024386230889
 20
148.0145049358386
 30
0.0
 11
266.6024386230889
 21
148.0145049358386
 31
0.0
  0
LINE
  5
171
330
18
100
AcDbEntity
  8
KRABICKA
100
AcDbLine
 10
249.4982375233625
 20
145.5145049358386
 30
0.0
 11
254.4982375233625
 21
145.5145049358386
 31
0.0
  0
LINE
  5
172
330
18
100
AcDbEntity
  8
KRABICKA
100
AcDbLine
 10
254.9982375233625
 20
148.0145049358386
 30
0.0
 11
257.1024386230889
 21
148.0145049358386
 31
0.0
  0
LINE
  5
173
330
18
100
AcDbEntity
  8
KRABICKA
100
AcDbLine
 10
254.9982375233625
 20
148.0145049358386
 30
0.0
 11
254.4982375233625
 21
145.5145049358386
 31
0.0
  0
LINE
  5
174
330
18
100
AcDbEntity
  8
KRABICKA
100
AcDbLine
 10
257.1024386230889
 20
166.5145049358386
 30
0.0
 11
266.1024386230889
 21
166.5145049358386
 31
0.0
  0
LINE
  5
175
330
18
100
AcDbEntity
  8
KRABICKA
100
AcDbLine
 10
257.1024386230889
 20
161.5145049358386
 30
0.0
 11
266.1024386230889
 21
161.5145049358386
 31
0.0
  0
LINE
  5
176
330
18
100
AcDbEntity
  8
KRABICKA
100
AcDbLine
 10
257.1024386230889
 20
150.5145049358386
 30
0.0
 11
266.1024386230889
 21
150.5145049358386
 31
0.0
  0
LINE
  5
177
330
18
100
AcDbEntity
  8
KRABICKA
100
AcDbLine
 10
266.6024386230889
 20
156.0145049358386
 30
0.0
 11
266.1024386230889
 21
161.5145049358386
 31
0.0
  0
LINE
  5
178
330
18
100
AcDbEntity
  8
KRABICKA
100
AcDbLine
 10
270.6024386230889
 20
161.0145049358386
 30
0.0
 11
270.6024386230889
 21
151.0145049358386
 31
0.0
  0
LINE
  5
179
330
18
100
AcDbEntity
  8
KRABICKA
100
AcDbLine
 10
266.1024386230889
 20
150.5145049358386
 30
0.0
 11
266.6024386230889
 21
156.0145049358386
 31
0.0
  0
ARC
  5
17A
330
18
100
AcDbEntity
  8
KRABICKA
100
AcDbCircle
 10
267.6024386230889
 20
161.0145049358386
 30
0.0
 40
3.0
100
AcDbArc
 50
0.000000000000007
 51
90.0
  0
LINE
  5
17B
330
18
100
AcDbEntity
  8
KRABICKA
100
AcDbLine
 10
266.1024386230889
 20
166.5145049358386
 30
0.0
 11
266.6024386230889
 21
164.0145049358386
 31
0.0
  0
LINE
  5
17C
330
18
100
AcDbEntity
  8
KRABICKA
100
AcDbLine
 10
266.1024386230889
 20
161.5145049358386
 30
0.0
 11
266.6024386230889
 21
164.0145049358386
 31
0.0
  0
LINE
  5
17D
330
18
100
AcDbEntity
  8
KRABICKA
100
AcDbLine
 10
267.6024386230889
 20
164.0145049358386
 30
0.0
 11
266.6024386230889
 21
164.0145049358386
 31
0.0
  0
LINE
  5
17E
330
18
100
AcDbEntity
  8
KRABICKA
100
AcDbLine
 10
254.9982375233625
 20
156.0145049358386
 30
0.0
 11
254.4982375233625
 21
161.5145049358386
 31
0.0
  0
LINE
  5
17F
330
18
100
AcDbEntity
  8
KRABICKA
100
AcDbLine
 10
249.4982375233625
 20
150.5145049358386
 30
0.0
 11
254.4982375233625
 21
150.5145049358386
 31
0.0
  0
LINE
  5
180
330
18
100
AcDbEntity
  8
KRABICKA
100
AcDbLine
 10
254.4982375233625
 20
150.5145049358386
 30
0.0
 11
254.9982375233625
 21
156.0145049358386
 31
0.0
  0
LINE
  5
181
330
18
100
AcDbEntity
  8
KRABICKA
100
AcDbLine
 10
254.9982375233625
 20
150.0145049358386
 30
0.0
 11
257.1024386230889
 21
150.0145049358386
 31
0.0
  0
LINE
  5
182
330
18
100
AcDbEntity
  8
KRABICKA
100
AcDbLine
 10
249.4982375233625
 20
161.5145049358386
 30
0.0
 11
254.4982375233625
 21
161.5145049358386
 31
0.0
  0
LINE
  5
183
330
18
100
AcDbEntity
  8
KRABICKA
100
AcDbLine
 10
249.4982375233625
 20
166.5145049358386
 30
0.0
 11
254.4982375233625
 21
166.5145049358386
 31
0.0
  0
LINE
  5
184
330
18
100
AcDbEntity
  8
KRABICKA
100
AcDbLine
 10
254.4982375233625
 20
166.5145049358386
 30
0.0
 11
254.9982375233625
 21
164.0145049358386
 31
0.0
  0
LINE
  5
185
330
18
100
AcDbEntity
  8
KRABICKA
100
AcDbLine
 10
254.9982375233625
 20
162.0145049358386
 30
0.0
 11
257.102438623089
 21
162.0145049358386
 31
0.0
  0
LINE
  5
186
330
18
100
AcDbEntity
  8
KRABICKA
100
AcDbLine
 10
254.9982375233625
 20
164.0145049358386
 30
0.0
 11
257.1024386230889
 21
164.0145049358386
 31
0.0
  0
LINE
  5
187
330
18
100
AcDbEntity
  8
KRABICKA
100
AcDbLine
 10
254.4982375233625
 20
161.5145049358386
 30
0.0
 11
254.9982375233625
 21
164.0145049358386
 31
0.0
  0
TEXT
  5
1A1
330
18
100
AcDbEntity
  8
SVORKY_POPIS
100
AcDbText
 10
227.174710715049
 20
172.4246130585682
 30
0.0
 40
1.3
  1
K1-
 50
90.0
  7
COMIC
 72
     1
 11
227.174710715049
 21
173.7553979029525
 31
0.0
100
AcDbText
  0
TEXT
  5
1A2
330
18
100
AcDbEntity
  8
SVORKY_POPIS
100
AcDbText
 10
232.174710715049
 20
172.3670014212204
 30
0.0
 40
1.3
  1
K1+
 50
90.0
  7
COMIC
 72
     1
 11
232.174710715049
 21
173.7553979029525
 31
0.0
100
AcDbText
  0
TEXT
  5
1A3
330
18
100
AcDbEntity
  8
SVORKY_POPIS
100
AcDbText
 10
224.7025557890797
 20
138.51595846734
 30
0.0
 40
1.3
  1
1
 50
270.0
  7
COMIC
 72
     1
 11
224.7025557890797
 21
138.1104780884496
 31
0.0
100
AcDbText
  0
TEXT
  5
1A4
330
18
100
AcDbEntity
  8
SVORKY_POPIS
100
AcDbText
 10
229.7025557890797
 20
138.660207452455
 30
0.0
 40
1.3
  1
2
 50
270.0
  7
COMIC
 72
     1
 11
229.7025557890797
 21
138.1104780884496
 31
0.0
100
AcDbText
  0
HATCH
  5
2AB
330
18
100
AcDbEntity
  8
STITEK_M
100
AcDbHatch
 10
0.0
 20
0.0
 30
0.0
210
0.0
220
0.0
230
1.0
  2
SOLID
 70
     1
 71
     1
 91
        6
 92
        1
 93
        8
 72
     1
 10
196.2724330233625
 20
126.0145060358386
 11
242.7240442233625
 21
126.0145060358386
 72
     2
 10
242.7240442233625
 20
132.7886993358386
 40
6.774193300000007
 50
269.9999999999997
 51
360.0
 73
     1
 72
     1
 10
249.4982375233625
 20
132.7886993358386
 11
249.4982375233625
 21
179.2403105358386
 72
     2
 10
242.7240442233625
 20
179.2403105358386
 40
6.774193299999978
 50
0.0000000000002404
 51
90.00000000000024
 73
     1
 72
     1
 10
242.7240442233625
 20
186.0145038358386
 11
196.2724330233625
 21
186.0145038358386
 72
     2
 10
196.2724330233625
 20
179.2403105358386
 40
6.774193299999978
 50
89.99999999999976
 51
180.0
 73
     1
 72
     1
 10
189.4982397233625
 20
179.2403105358386
 11
189.4982397233625
 21
132.7886993358386
 72
     2
 10
196.2724330233625
 20
132.7886993358386
 40
6.774193299999978
 50
180.0
 51
270.0000000000002
 73
     1
 97
        1
330
130
 92
       16
 93
        8
 72
     1
 10
204.0840250609894
 20
130.0145049358386
 11
234.9124521857356
 21
130.0145049358386
 72
     1
 10
234.9124521857356
 20
130.0145049358386
 11
245.4982386233625
 21
140.6002913734655
 72
     1
 10
245.4982386233625
 20
140.6002913734655
 11
245.4982386233625
 21
171.4287184982117
 72
     1
 10
245.4982386233625
 20
171.4287184982117
 11
234.9124521857356
 21
182.0145049358386
 72
     1
 10
234.9124521857356
 20
182.0145049358386
 11
204.0840250609894
 21
182.0145049358386
 72
     1
 10
204.0840250609894
 20
182.0145049358386
 11
193.4982386233625
 21
171.4287184982117
 72
     1
 10
193.4982386233625
 20
171.4287184982117
 11
193.4982386233625
 21
140.6002913734655
 72
     1
 10
193.4982386233625
 20
140.6002913734655
 11
204.0840250609894
 21
130.0145049358386
 97
        1
330
12F
 92
       16
 93
        1
 72
     2
 10
195.2555979362432
 20
180.2571456229579
 40
2.0
 50
0.0
 51
360.0
 73
     1
 97
        1
330
134
 92
       16
 93
        1
 72
     2
 10
243.7408793104818
 20
180.2571456229579
 40
2.0
 50
0.0
 51
360.0
 73
     1
 97
        1
330
140
 92
       16
 93
        1
 72
     2
 10
243.7408793104818
 20
131.7718642487194
 40
2.0
 50
0.0
 51
360.0
 73
     1
 97
        1
330
135
 92
       16
 93
        1
 72
     2
 10
195.2555979362432
 20
131.7718642487194
 40
2.0
 50
0.0
 51
360.0
 73
     1
 97
        1
330
138
 75
     0
 76
     1
 98
        1
 10
0.0
 20
0.0
  0
ENDSEC
  0
SECTION
  2
OBJECTS
  0
DICTIONARY
  5
C
330
0
100
AcDbDictionary
281
     1
  3
ACAD_GROUP
350
D
  3
ACAD_LAYOUT
350
129
  3
ACAD_MLINESTYLE
350
1B
  3
ACAD_PLOTSETTINGS
350
12A
  3
ACAD_PLOTSTYLENAME
350
127
  3
AcDbVariableDictionary
350
1AD
  0
DICTIONARY
  5
2A7
330
18
100
AcDbDictionary
280
     1
281
     1
  3
ACAD_SORTENTS
360
2A8
  0
DICTIONARY
  5
D
102
{ACAD_REACTORS
330
C
102
}
330
C
100
AcDbDictionary
281
     1
  0
DICTIONARY
  5
129
102
{ACAD_REACTORS
330
C
102
}
330
C
100
AcDbDictionary
281
     1
  3
Layout1
350
12C
  3
Model
350
12B
  0
DICTIONARY
  5
1B
102
{ACAD_REACTORS
330
C
102
}
330
C
100
AcDbDictionary
281
     1
  3
STANDARD
350
1C
  0
DICTIONARY
  5
12A
102
{ACAD_REACTORS
330
C
102
}
330
C
100
AcDbDictionary
281
     1
  0
ACDBDICTIONARYWDFLT
  5
127
102
{ACAD_REACTORS
330
C
102
}
330
C
100
AcDbDictionary
281
     1
  3
Normal
350
128
100
AcDbDictionaryWithDefault
340
128
  0
DICTIONARY
  5
1AD
102
{ACAD_REACTORS
330
C
102
}
330
C
100
AcDbDictionary
281
     1
  3
SORTENTS
350
1AE
  0
SORTENTSTABLE
  5
2A8
102
{ACAD_REACTORS
330
2A7
102
}
330
2A7
100
AcDbSortentsTable
330
18
331
7C
  5
7D
331
43
  5
44
331
174
  5
175
331
15A
  5
15B
331
138
  5
140
331
9E
  5
9F
331
65
  5
66
331
8D
  5
8E
331
54
  5
55
331
185
  5
186
331
149
  5
14B
331
2A6
  5
20
331
76
  5
77
331
7A
  5
7B
331
41
  5
42
331
1A4
  5
2A6
331
172
  5
173
331
158
  5
159
331
9C
  5
9D
331
63
  5
64
331
8B
  5
8C
331
52
  5
53
331
30
  5
31
331
183
  5
184
331
147
  5
149
331
74
  5
75
331
78
  5
79
331
1A2
  5
1A3
331
170
  5
171
331
156
  5
157
331
134
  5
135
331
61
  5
62
331
89
  5
8A
331
50
  5
51
331
2E
  5
2F
331
181
  5
182
331
167
  5
168
331
3F
  5
40
331
72
  5
73
331
16E
  5
16F
331
154
  5
155
331
98
  5
9C
331
17F
  5
180
331
165
  5
166
331
143
  5
144
331
70
  5
71
331
4E
  5
4F
331
2C
  5
2E
331
5F
  5
60
331
3D
  5
3E
331
16C
  5
16D
331
152
  5
153
331
130
  5
134
331
17D
  5
17E
331
163
  5
164
331
6E
  5
6F
331
4C
  5
4D
331
2A
  5
2B
331
5D
  5
5E
331
3B
  5
3C
331
16A
  5
16B
331
150
  5
151
331
83
  5
89
331
4A
  5
4B
331
28
  5
29
331
17B
  5
17C
331
94
  5
95
331
5B
  5
5C
331
39
  5
3A
331
6C
  5
6D
331
168
  5
169
331
81
  5
83
331
179
  5
17A
331
15F
  5
162
331
6A
  5
6B
331
14E
  5
14F
331
92
  5
94
331
59
  5
5A
331
37
  5
39
331
7F
  5
80
331
24
  5
27
331
177
  5
178
331
15D
  5
15E
331
68
  5
69
331
14C
  5
14D
331
90
  5
91
331
57
  5
58
331
7D
  5
7F
331
44
  5
4A
331
175
  5
176
331
15B
  5
15C
331
9F
  5
A0
331
66
  5
67
331
8E
  5
90
331
55
  5
56
331
186
  5
187
331
77
  5
78
331
7B
  5
7C
331
42
  5
43
331
20
  5
23
331
173
  5
174
331
159
  5
15A
331
9D
  5
9E
331
8C
  5
8D
331
53
  5
54
331
31
  5
34
331
64
  5
65
331
184
  5
185
331
75
  5
76
331
79
  5
7A
331
40
  5
41
331
1A3
  5
1A4
331
171
  5
172
331
157
  5
158
331
135
  5
138
331
62
  5
63
331
8A
  5
8B
331
51
  5
52
331
2F
  5
30
331
182
  5
183
331
146
  5
147
331
73
  5
74
331
1A1
  5
1A2
331
16F
  5
170
331
155
  5
156
331
60
  5
61
331
180
  5
181
331
166
  5
167
331
144
  5
146
331
71
  5
72
331
4F
  5
50
331
3E
  5
3F
331
16D
  5
16E
331
153
  5
154
331
17E
  5
17F
331
164
  5
165
331
6F
  5
70
331
4D
  5
4E
331
2B
  5
2C
331
97
  5
98
331
5E
  5
5F
331
3C
  5
3D
331
16B
  5
16C
331
151
  5
152
331
17C
  5
17D
331
162
  5
163
331
140
  5
143
331
6D
  5
6E
331
4B
  5
4C
331
29
  5
2A
331
12F
  5
130
331
95
  5
97
331
5C
  5
5D
331
3A
  5
3B
331
169
  5
16A
331
17A
  5
17B
331
6B
  5
6C
331
27
  5
28
331
14F
  5
150
331
5A
  5
5B
331
80
  5
81
331
178
  5
179
331
15E
  5
15F
331
69
  5
6A
331
14D
  5
14E
331
91
  5
92
331
58
  5
59
331
176
  5
177
331
15C
  5
15D
331
A0
  5
12F
331
67
  5
68
331
23
  5
24
331
187
  5
1A1
331
14B
  5
14C
331
56
  5
57
331
34
  5
37
  0
LAYOUT
  5
12C
102
{ACAD_REACTORS
330
129
102
}
330
129
100
AcDbPlotSettings
  1

  2
Minolta PagePro 20
  4

  6

 40
0.0
 41
0.0
 42
0.0
 43
0.0
 44
0.0
 45
0.0
 46
0.0
 47
0.0
 48
0.0
 49
0.0
140
0.0
141
0.0
142
1.0
143
1.0
 70
   688
 72
     0
 73
     0
 74
     5
  7
pera čb.ctb
 75
    16
147
1.0
148
0.0
149
0.0
100
AcDbLayout
  1
Layout1
 70
     1
 71
     1
 10
0.0
 20
0.0
 11
420.0
 21
297.0
 12
0.0
 22
0.0
 32
0.0
 14
1.000000000000000E+20
 24
1.000000000000000E+20
 34
1.000000000000000E+20
 15
-1.000000000000000E+20
 25
-1.000000000000000E+20
 35
-1.000000000000000E+20
146
0.0
 13
0.0
 23
0.0
 33
0.0
 16
1.0
 26
0.0
 36
0.0
 17
0.0
 27
1.0
 37
0.0
 76
     0
330
15
  0
LAYOUT
  5
12B
102
{ACAD_REACTORS
330
129
102
}
330
129
100
AcDbPlotSettings
  1

  2
Minolta PagePro 20
  4

  6

 40
0.0
 41
0.0
 42
0.0
 43
0.0
 44
0.0
 45
0.0
 46
0.0
 47
0.0
 48
0.0
 49
0.0
140
0.0
141
0.0
142
1.0
143
1.0
 70
  1712
 72
     0
 73
     0
 74
     0
  7
pera čb.ctb
 75
     0
147
1.0
148
0.0
149
0.0
100
AcDbLayout
  1
Model
 70
     1
 71
     0
 10
0.0
 20
0.0
 11
12.0
 21
9.0
 12
0.0
 22
0.0
 32
0.0
 14
0.0
 24
0.0
 34
0.0
 15
0.0
 25
0.0
 35
0.0
146
0.0
 13
0.0
 23
0.0
 33
0.0
 16
1.0
 26
0.0
 36
0.0
 17
0.0
 27
1.0
 37
0.0
 76
     0
330
18
  0
MLINESTYLE
  5
1C
102
{ACAD_REACTORS
330
1B
102
}
330
1B
100
AcDbMlineStyle
  2
STANDARD
 70
     0
  3

 62
   256
 51
90.0
 52
90.0
 71
     2
 49
0.5
 62
   256
  6
BYLAYER
 49
-0.5
 62
   256
  6
BYLAYER
  0
ACDBPLACEHOLDER
  5
128
102
{ACAD_REACTORS
330
127
102
}
330
127
  0
DICTIONARYVAR
  5
1AE
102
{ACAD_REACTORS
330
1AD
102
}
330
1AD
100
DictionaryVariables
280
     0
  1
127
  0
ENDSEC
  0
EOF
