  0
SECTION
  2
HEADER
  9
$ACADVER
  1
AC1015
  9
$ACADMAINTVER
 70
    10
  9
$DWGCODEPAGE
  3
ANSI_1250
  9
$INSBASE
 10
882.2464226056094
 20
146.1378045387
 30
0.0
  9
$EXTMIN
 10
865.796561674483
 20
85.2393860390841
 30
0.0
  9
$EXTMAX
 10
907.5539058100018
 20
135.1738961281041
 30
0.0
  9
$LIMMIN
 10
0.0
 20
0.0
  9
$LIMMAX
 10
420.0
 20
297.0
  9
$ORTHOMODE
 70
     1
  9
$REGENMODE
 70
     1
  9
$FILLMODE
 70
     1
  9
$QTEXTMODE
 70
     0
  9
$MIRRTEXT
 70
     1
  9
$LTSCALE
 40
1.0
  9
$ATTMODE
 70
     1
  9
$TEXTSIZE
 40
20.0
  9
$TRACEWID
 40
1.0
  9
$TEXTSTYLE
  7
Standard
  9
$CLAYER
  8
0
  9
$CELTYPE
  6
ByLayer
  9
$CECOLOR
 62
   256
  9
$CELTSCALE
 40
1.0
  9
$DISPSILH
 70
     0
  9
$DIMSCALE
 40
1.0
  9
$DIMASZ
 40
2.5
  9
$DIMEXO
 40
0.625
  9
$DIMDLI
 40
3.75
  9
$DIMRND
 40
0.0
  9
$DIMDLE
 40
0.0
  9
$DIMEXE
 40
1.25
  9
$DIMTP
 40
0.0
  9
$DIMTM
 40
0.0
  9
$DIMTXT
 40
2.5
  9
$DIMCEN
 40
2.5
  9
$DIMTSZ
 40
0.0
  9
$DIMTOL
 70
     0
  9
$DIMLIM
 70
     0
  9
$DIMTIH
 70
     0
  9
$DIMTOH
 70
     0
  9
$DIMSE1
 70
     0
  9
$DIMSE2
 70
     0
  9
$DIMTAD
 70
     1
  9
$DIMZIN
 70
     8
  9
$DIMBLK
  1

  9
$DIMASO
 70
     1
  9
$DIMSHO
 70
     1
  9
$DIMPOST
  1

  9
$DIMAPOST
  1

  9
$DIMALT
 70
     0
  9
$DIMALTD
 70
     3
  9
$DIMALTF
 40
0.03937007874016
  9
$DIMLFAC
 40
1.0
  9
$DIMTOFL
 70
     1
  9
$DIMTVP
 40
0.0
  9
$DIMTIX
 70
     0
  9
$DIMSOXD
 70
     0
  9
$DIMSAH
 70
     0
  9
$DIMBLK1
  1

  9
$DIMBLK2
  1

  9
$DIMSTYLE
  2
ISO-25
  9
$DIMCLRD
 70
     0
  9
$DIMCLRE
 70
     0
  9
$DIMCLRT
 70
     0
  9
$DIMTFAC
 40
1.0
  9
$DIMGAP
 40
0.625
  9
$DIMJUST
 70
     0
  9
$DIMSD1
 70
     0
  9
$DIMSD2
 70
     0
  9
$DIMTOLJ
 70
     0
  9
$DIMTZIN
 70
     8
  9
$DIMALTZ
 70
     0
  9
$DIMALTTZ
 70
     0
  9
$DIMUPT
 70
     0
  9
$DIMDEC
 70
     2
  9
$DIMTDEC
 70
     2
  9
$DIMALTU
 70
     2
  9
$DIMALTTD
 70
     3
  9
$DIMTXSTY
  7
Standard
  9
$DIMAUNIT
 70
     0
  9
$DIMADEC
 70
     0
  9
$DIMALTRND
 40
0.0
  9
$DIMAZIN
 70
     0
  9
$DIMDSEP
 70
    44
  9
$DIMATFIT
 70
     3
  9
$DIMFRAC
 70
     0
  9
$DIMLDRBLK
  1

  9
$DIMLUNIT
 70
     2
  9
$DIMLWD
 70
    -2
  9
$DIMLWE
 70
    -2
  9
$DIMTMOVE
 70
     0
  9
$LUNITS
 70
     2
  9
$LUPREC
 70
     4
  9
$SKETCHINC
 40
1.0
  9
$FILLETRAD
 40
0.3
  9
$AUNITS
 70
     0
  9
$AUPREC
 70
     0
  9
$MENU
  1
.
  9
$ELEVATION
 40
0.0
  9
$PELEVATION
 40
0.0
  9
$THICKNESS
 40
0.0
  9
$LIMCHECK
 70
     0
  9
$CHAMFERA
 40
10.0
  9
$CHAMFERB
 40
10.0
  9
$CHAMFERC
 40
20.0
  9
$CHAMFERD
 40
0.0
  9
$SKPOLY
 70
     0
  9
$TDCREATE
 40
2451634.349446296
  9
$TDUCREATE
 40
2451634.307779630
  9
$TDUPDATE
 40
2454553.617137940
  9
$TDUUPDATE
 40
2454553.575471273
  9
$TDINDWG
 40
0.0623434144
  9
$TDUSRTIMER
 40
0.0623432986
  9
$USRTIMER
 70
     1
  9
$ANGBASE
 50
0.0
  9
$ANGDIR
 70
     0
  9
$PDMODE
 70
     0
  9
$PDSIZE
 40
0.0
  9
$PLINEWID
 40
0.0
  9
$SPLFRAME
 70
     0
  9
$SPLINETYPE
 70
     6
  9
$SPLINESEGS
 70
     8
  9
$HANDSEED
  5
2BB
  9
$SURFTAB1
 70
     6
  9
$SURFTAB2
 70
     6
  9
$SURFTYPE
 70
     6
  9
$SURFU
 70
     6
  9
$SURFV
 70
     6
  9
$UCSBASE
  2

  9
$UCSNAME
  2

  9
$UCSORG
 10
0.0
 20
0.0
 30
0.0
  9
$UCSXDIR
 10
1.0
 20
0.0
 30
0.0
  9
$UCSYDIR
 10
0.0
 20
1.0
 30
0.0
  9
$UCSORTHOREF
  2

  9
$UCSORTHOVIEW
 70
     0
  9
$UCSORGTOP
 10
0.0
 20
0.0
 30
0.0
  9
$UCSORGBOTTOM
 10
0.0
 20
0.0
 30
0.0
  9
$UCSORGLEFT
 10
0.0
 20
0.0
 30
0.0
  9
$UCSORGRIGHT
 10
0.0
 20
0.0
 30
0.0
  9
$UCSORGFRONT
 10
0.0
 20
0.0
 30
0.0
  9
$UCSORGBACK
 10
0.0
 20
0.0
 30
0.0
  9
$PUCSBASE
  2

  9
$PUCSNAME
  2

  9
$PUCSORG
 10
0.0
 20
0.0
 30
0.0
  9
$PUCSXDIR
 10
1.0
 20
0.0
 30
0.0
  9
$PUCSYDIR
 10
0.0
 20
1.0
 30
0.0
  9
$PUCSORTHOREF
  2

  9
$PUCSORTHOVIEW
 70
     0
  9
$PUCSORGTOP
 10
0.0
 20
0.0
 30
0.0
  9
$PUCSORGBOTTOM
 10
0.0
 20
0.0
 30
0.0
  9
$PUCSORGLEFT
 10
0.0
 20
0.0
 30
0.0
  9
$PUCSORGRIGHT
 10
0.0
 20
0.0
 30
0.0
  9
$PUCSORGFRONT
 10
0.0
 20
0.0
 30
0.0
  9
$PUCSORGBACK
 10
0.0
 20
0.0
 30
0.0
  9
$USERI1
 70
     0
  9
$USERI2
 70
     0
  9
$USERI3
 70
     0
  9
$USERI4
 70
     0
  9
$USERI5
 70
     0
  9
$USERR1
 40
0.0
  9
$USERR2
 40
0.0
  9
$USERR3
 40
0.0
  9
$USERR4
 40
0.0
  9
$USERR5
 40
0.0
  9
$WORLDVIEW
 70
     1
  9
$SHADEDGE
 70
     3
  9
$SHADEDIF
 70
    70
  9
$TILEMODE
 70
     1
  9
$MAXACTVP
 70
    64
  9
$PINSBASE
 10
0.0
 20
0.0
 30
0.0
  9
$PLIMCHECK
 70
     0
  9
$PEXTMIN
 10
28.77184958457945
 20
19.7760160923004
 30
0.0
  9
$PEXTMAX
 10
258.9466462612152
 20
177.9841448307037
 30
0.0
  9
$PLIMMIN
 10
-4.603759765625
 20
-7.651750087738037
  9
$PLIMMAX
 10
292.3222351074219
 20
202.4062485694885
  9
$UNITMODE
 70
     0
  9
$VISRETAIN
 70
     1
  9
$PLINEGEN
 70
     0
  9
$PSLTSCALE
 70
     1
  9
$TREEDEPTH
 70
  3020
  9
$CMLSTYLE
  2
Standard
  9
$CMLJUST
 70
     0
  9
$CMLSCALE
 40
20.0
  9
$PROXYGRAPHICS
 70
     1
  9
$MEASUREMENT
 70
     1
  9
$CELWEIGHT
370
    -1
  9
$ENDCAPS
280
     0
  9
$JOINSTYLE
280
     0
  9
$LWDISPLAY
290
     0
  9
$INSUNITS
 70
     4
  9
$HYPERLINKBASE
  1

  9
$STYLESHEET
  1

  9
$XEDIT
290
     1
  9
$CEPSNTYPE
380
     0
  9
$PSTYLEMODE
290
     1
  9
$FINGERPRINTGUID
  2
{497C90CF-05F2-11D4-B1E1-0000B48F6CD8}
  9
$VERSIONGUID
  2
{2EB5E7B0-C090-41F3-862A-6BF20DDD07DF}
  9
$EXTNAMES
290
     1
  9
$PSVPSCALE
 40
0.0
  9
$OLESTARTUP
290
     0
  0
ENDSEC
  0
SECTION
  2
CLASSES
  0
CLASS
  1
ACDBDICTIONARYWDFLT
  2
AcDbDictionaryWithDefault
  3
AutoCAD 2000
 90
        0
280
     0
281
     0
  0
CLASS
  1
ACDBPLACEHOLDER
  2
AcDbPlaceHolder
  3
AutoCAD 2000
 90
        0
280
     0
281
     0
  0
CLASS
  1
LAYOUT
  2
AcDbLayout
  3
AutoCAD 2000
 90
        0
280
     0
281
     0
  0
CLASS
  1
DICTIONARYVAR
  2
AcDbDictionaryVar
  3
AutoCAD 2000
 90
    32768
280
     0
281
     0
  0
ENDSEC
  0
SECTION
  2
TABLES
  0
TABLE
  2
VPORT
  5
19
330
0
100
AcDbSymbolTable
 70
     3
  0
VPORT
  5
2BA
330
19
100
AcDbSymbolTableRecord
100
AcDbViewportTableRecord
  2
*Active
 70
     0
 10
0.0
 20
0.0
 11
1.0
 21
1.0
 12
886.9641318132256
 22
106.0751363280641
 13
0.0
 23
0.0
 14
10.0
 24
10.0
 15
10.0
 25
10.0
 16
0.0
 26
0.0
 36
1.0
 17
0.0
 27
0.0
 37
0.0
 40
45.17947450213912
 41
1.496962332928311
 42
50.0
 43
0.0
 44
0.0
 50
0.0
 51
0.0
 71
     0
 72
   100
 73
     1
 74
     3
 75
     0
 76
     0
 77
     0
 78
     0
281
     0
 65
     1
110
0.0
120
0.0
130
0.0
111
1.0
121
0.0
131
0.0
112
0.0
122
1.0
132
0.0
 79
     0
146
0.0
  0
ENDTAB
  0
TABLE
  2
LTYPE
  5
14
330
0
100
AcDbSymbolTable
 70
     1
  0
LTYPE
  5
15
330
14
100
AcDbSymbolTableRecord
100
AcDbLinetypeTableRecord
  2
ByBlock
 70
     0
  3

 72
    65
 73
     0
 40
0.0
  0
LTYPE
  5
16
330
14
100
AcDbSymbolTableRecord
100
AcDbLinetypeTableRecord
  2
ByLayer
 70
     0
  3

 72
    65
 73
     0
 40
0.0
  0
LTYPE
  5
8
330
14
100
AcDbSymbolTableRecord
100
AcDbLinetypeTableRecord
  2
Continuous
 70
     0
  3
Solid line
 72
    65
 73
     0
 40
0.0
  0
ENDTAB
  0
TABLE
  2
LAYER
  5
10
330
0
100
AcDbSymbolTable
 70
     7
  0
LAYER
  5
4
330
10
100
AcDbSymbolTableRecord
100
AcDbLayerTableRecord
  2
0
 70
     0
 62
     7
  6
Continuous
370
    -3
390
5
  0
LAYER
  5
25
330
10
100
AcDbSymbolTableRecord
100
AcDbLayerTableRecord
  2
KRABICKA
 70
     0
 62
     7
  6
Continuous
370
    -3
390
5
  0
LAYER
  5
1A7
330
10
100
AcDbSymbolTableRecord
100
AcDbLayerTableRecord
  2
SVORKY
 70
     0
 62
     3
  6
Continuous
370
    -3
390
5
  0
LAYER
  5
1AB
330
10
100
AcDbSymbolTableRecord
100
AcDbLayerTableRecord
  2
POPIS_SVOREK
 70
     0
 62
     7
  6
Continuous
370
    -3
390
5
  0
ENDTAB
  0
TABLE
  2
STYLE
  5
11
330
0
100
AcDbSymbolTable
 70
     5
  0
STYLE
  5
12
330
11
100
AcDbSymbolTableRecord
100
AcDbTextStyleTableRecord
  2
Standard
 70
     0
 40
0.0
 41
0.8
 50
0.0
 71
     0
 42
20.0
  3
simplex.shx
  4

  0
STYLE
  5
1AC
330
11
100
AcDbSymbolTableRecord
100
AcDbTextStyleTableRecord
  2
COMIC
 70
     0
 40
0.0
 41
1.0
 50
0.0
 71
     0
 42
1.5
  3
COMIC.TTF
  4

1001
ACAD
1000
Comic Sans MS
1071
       66
  0
ENDTAB
  0
TABLE
  2
VIEW
  5
17
330
0
100
AcDbSymbolTable
 70
     0
  0
ENDTAB
  0
TABLE
  2
UCS
  5
18
330
0
100
AcDbSymbolTable
 70
     0
  0
ENDTAB
  0
TABLE
  2
APPID
  5
1B
330
0
100
AcDbSymbolTable
 70
     1
  0
APPID
  5
1C
330
1B
100
AcDbSymbolTableRecord
100
AcDbRegAppTableRecord
  2
ACAD
 70
     0
  0
ENDTAB
  0
TABLE
  2
DIMSTYLE
  5
1D
330
0
100
AcDbSymbolTable
 70
     1
100
AcDbDimStyleTable
 71
     0
  0
DIMSTYLE
105
23
330
1D
100
AcDbSymbolTableRecord
100
AcDbDimStyleTableRecord
  2
ISO-25
 70
     0
 41
2.5
 42
0.625
 43
3.75
 44
1.25
 73
     0
 74
     0
 77
     1
 78
     8
140
2.5
141
2.5
143
0.03937007874016
147
0.625
171
     3
172
     1
271
     2
272
     2
274
     3
278
    44
283
     0
284
     8
340
12
  0
ENDTAB
  0
TABLE
  2
BLOCK_RECORD
  5
1
330
0
100
AcDbSymbolTable
 70
     1
  0
BLOCK_RECORD
  5
2
330
1
100
AcDbSymbolTableRecord
100
AcDbBlockTableRecord
  2
*Model_Space
340
A
  0
BLOCK_RECORD
  5
C
330
1
100
AcDbSymbolTableRecord
100
AcDbBlockTableRecord
  2
*Paper_Space
340
F
  0
ENDTAB
  0
ENDSEC
  0
SECTION
  2
BLOCKS
  0
BLOCK
  5
3
330
2
100
AcDbEntity
  8
0
100
AcDbBlockBegin
  2
*Model_Space
 70
     0
 10
0.0
 20
0.0
 30
0.0
  3
*Model_Space
  1

  0
ENDBLK
  5
9
330
2
100
AcDbEntity
  8
0
100
AcDbBlockEnd
  0
BLOCK
  5
D
330
C
100
AcDbEntity
 67
     1
  8
0
100
AcDbBlockBegin
  2
*Paper_Space
 70
     0
 10
0.0
 20
0.0
 30
0.0
  3
*Paper_Space
  1

  0
ENDBLK
  5
E
330
C
100
AcDbEntity
 67
     1
  8
0
100
AcDbBlockEnd
  0
ENDSEC
  0
SECTION
  2
ENTITIES
  0
LWPOLYLINE
  5
24
330
2
100
AcDbEntity
  8
KRABICKA
100
AcDbPolyline
 90
       16
 70
     1
 43
0.0
 10
906.9252337422424
 20
90.36773624590853
 10
906.9252337422424
 20
120.9800560102997
 42
0.3646334707430275
 10
904.0249278538718
 20
124.4282971521685
 10
899.676854231586
 20
125.1844838690878
 42
0.0430743139908579
 10
891.1097954940236
 20
125.9238961281041
 10
882.2406719904613
 20
125.9238961281041
 42
0.0430743139908583
 10
873.673613252899
 20
125.1844838690878
 10
869.3255396306131
 20
124.4282971521685
 42
0.3646334707430279
 10
866.4252337422423
 20
120.9800560102996
 10
866.4252337422425
 20
90.3677362459085
 42
0.3646334707430281
 10
869.3255396306131
 20
86.91949510403963
 10
873.673613252899
 20
86.16330838712034
 42
0.0430743139908581
 10
882.2406719904613
 20
85.42389612810408
 10
891.1097954940235
 20
85.42389612810408
 42
0.043074313990859
 10
899.676854231586
 20
86.16330838712039
 10
904.0249278538718
 20
86.91949510403967
 42
0.3646334707430281
  0
CIRCLE
  5
37
330
2
100
AcDbEntity
  8
KRABICKA
 62
     9
100
AcDbCircle
 10
886.6752337422424
 20
105.6644385566969
 30
0.0
 40
13.34903470721314
  0
CIRCLE
  5
38
330
2
100
AcDbEntity
  8
KRABICKA
100
AcDbCircle
 10
886.6752337422424
 20
105.6644385566969
 30
0.0
 40
13.63923111389169
  0
LWPOLYLINE
  5
3A
330
2
100
AcDbEntity
  8
KRABICKA
100
AcDbPolyline
 90
       16
 70
     1
 43
0.0
 10
898.991489532581
 20
121.2436368498091
 42
0.0430743139908579
 10
891.1097954940236
 20
121.9238961281041
 10
882.2406719904613
 20
121.9238961281041
 42
0.0430743139908583
 10
874.3589779519041
 20
121.2436368498091
 10
872.4968808053644
 20
120.9197938678022
 42
0.3646334707430334
 10
870.4252337422424
 20
118.456764480753
 10
870.4252337422426
 20
92.89102777545512
 42
0.3646334707430252
 10
872.4968808053645
 20
90.42799838840593
 10
874.3589779519039
 20
90.10415540639902
 42
0.0430743139908581
 10
882.2406719904613
 20
89.42389612810407
 10
891.1097954940235
 20
89.42389612810407
 42
0.043074313990859
 10
898.991489532581
 20
90.10415540639909
 10
900.8535866791206
 20
90.42799838840597
 42
0.3646334707430278
 10
902.9252337422423
 20
92.89102777545517
 10
902.9252337422423
 20
118.456764480753
 42
0.3646334707430287
 10
900.8535866791206
 20
120.9197938678022
  0
LWPOLYLINE
  5
3B
330
2
100
AcDbEntity
  8
KRABICKA
 62
     9
100
AcDbPolyline
 90
       16
 70
     1
 43
0.0
 10
898.9470350647925
 20
120.988023660021
 42
0.0430743139908624
 10
891.1097954940236
 20
121.664446128104
 10
882.2406719904615
 20
121.664446128104
 42
0.0430743139908566
 10
874.4034324196933
 20
120.9880236600211
 10
872.5413352731536
 20
120.6641806780142
 42
0.3646334707430297
 10
870.6846837422425
 20
118.456764480753
 10
870.6846837422427
 20
92.89102777545512
 42
0.3646334707430224
 10
872.5413352731536
 20
90.6836115781939
 10
874.4034324196922
 20
90.35976859618713
 42
0.0430743139908625
 10
882.2406719904613
 20
89.68334612810407
 10
891.1097954940235
 20
89.68334612810409
 42
0.0430743139908587
 10
898.9470350647916
 20
90.35976859618699
 10
900.8091322113314
 20
90.68361157819394
 42
0.3646334707430299
 10
902.6657837422424
 20
92.89102777545513
 10
902.6657837422424
 20
118.456764480753
 42
0.3646334707430238
 10
900.8091322113314
 20
120.6641806780142
  0
POLYLINE
  5
3C
330
2
100
AcDbEntity
  8
KRABICKA
 62
     9
100
AcDb2dPolyline
 66
     1
 10
0.0
 20
0.0
 30
0.0
 70
     5
 75
     6
  0
VERTEX
  5
3D
330
3C
100
AcDbEntity
  8
KRABICKA
 62
     9
100
AcDbVertex
100
AcDb2dVertex
 10
886.6752337422425
 20
88.92389612810402
 30
0.0
 70
    16
  0
VERTEX
  5
3E
330
3C
100
AcDbEntity
  8
KRABICKA
 62
     9
100
AcDbVertex
100
AcDb2dVertex
 10
882.1231886523273
 20
88.95420676914957
 30
0.0
 70
     8
  0
VERTEX
  5
3F
330
3C
100
AcDbEntity
  8
KRABICKA
 62
     9
100
AcDbVertex
100
AcDb2dVertex
 10
881.6477348433791
 20
88.9637660080435
 30
0.0
 70
     8
  0
VERTEX
  5
40
330
3C
100
AcDbEntity
  8
KRABICKA
 62
     9
100
AcDbVertex
100
AcDb2dVertex
 10
881.1963753029898
 20
88.97528523706631
 30
0.0
 70
     8
  0
VERTEX
  5
41
330
3C
100
AcDbEntity
  8
KRABICKA
 62
     9
100
AcDbVertex
100
AcDb2dVertex
 10
880.7633589277639
 20
88.98890986509954
 30
0.0
 70
     8
  0
VERTEX
  5
42
330
3C
100
AcDbEntity
  8
KRABICKA
 62
     9
100
AcDbVertex
100
AcDb2dVertex
 10
880.3429346143053
 20
89.0047853010248
 30
0.0
 70
     8
  0
VERTEX
  5
43
330
3C
100
AcDbEntity
  8
KRABICKA
 62
     9
100
AcDbVertex
100
AcDb2dVertex
 10
879.9293512592184
 20
89.02305695372371
 30
0.0
 70
     8
  0
VERTEX
  5
44
330
3C
100
AcDbEntity
  8
KRABICKA
 62
     9
100
AcDbVertex
100
AcDb2dVertex
 10
879.5168577591073
 20
89.04387023207783
 30
0.0
 70
     8
  0
VERTEX
  5
45
330
3C
100
AcDbEntity
  8
KRABICKA
 62
     9
100
AcDbVertex
100
AcDb2dVertex
 10
879.0997030105762
 20
89.06737054496876
 30
0.0
 70
     8
  0
VERTEX
  5
46
330
3C
100
AcDbEntity
  8
KRABICKA
 62
     9
100
AcDbVertex
100
AcDb2dVertex
 10
878.6721359102294
 20
89.09370330127812
 30
0.0
 70
     8
  0
VERTEX
  5
47
330
3C
100
AcDbEntity
  8
KRABICKA
 62
     9
100
AcDbVertex
100
AcDb2dVertex
 10
878.2303250465465
 20
89.12289972902204
 30
0.0
 70
     8
  0
VERTEX
  5
48
330
3C
100
AcDbEntity
  8
KRABICKA
 62
     9
100
AcDbVertex
100
AcDb2dVertex
 10
877.7781177755116
 20
89.1545343327551
 30
0.0
 70
     8
  0
VERTEX
  5
49
330
3C
100
AcDbEntity
  8
KRABICKA
 62
     9
100
AcDbVertex
100
AcDb2dVertex
 10
877.3212811449836
 20
89.1880674361665
 30
0.0
 70
     8
  0
VERTEX
  5
4A
330
3C
100
AcDbEntity
  8
KRABICKA
 62
     9
100
AcDbVertex
100
AcDb2dVertex
 10
876.865582202822
 20
89.22295936294535
 30
0.0
 70
     8
  0
VERTEX
  5
4B
330
3C
100
AcDbEntity
  8
KRABICKA
 62
     9
100
AcDbVertex
100
AcDb2dVertex
 10
876.4167879968864
 20
89.2586704367808
 30
0.0
 70
     8
  0
VERTEX
  5
4C
330
3C
100
AcDbEntity
  8
KRABICKA
 62
     9
100
AcDbVertex
100
AcDb2dVertex
 10
875.9806655750356
 20
89.29466098136201
 30
0.0
 70
     8
  0
VERTEX
  5
4D
330
3C
100
AcDbEntity
  8
KRABICKA
 62
     9
100
AcDbVertex
100
AcDb2dVertex
 10
875.5629819851295
 20
89.3303913203781
 30
0.0
 70
     8
  0
VERTEX
  5
4E
330
3C
100
AcDbEntity
  8
KRABICKA
 62
     9
100
AcDbVertex
100
AcDb2dVertex
 10
875.169504275027
 20
89.36532177751832
 30
0.0
 70
     8
  0
VERTEX
  5
4F
330
3C
100
AcDbEntity
  8
KRABICKA
 62
     9
100
AcDbVertex
100
AcDb2dVertex
 10
874.8047374572108
 20
89.39903599102867
 30
0.0
 70
     8
  0
VERTEX
  5
50
330
3C
100
AcDbEntity
  8
KRABICKA
 62
     9
100
AcDbVertex
100
AcDb2dVertex
 10
874.4681384026565
 20
89.43161085738314
 30
0.0
 70
     8
  0
VERTEX
  5
51
330
3C
100
AcDbEntity
  8
KRABICKA
 62
     9
100
AcDbVertex
100
AcDb2dVertex
 10
874.1579019469616
 20
89.46324658761254
 30
0.0
 70
     8
  0
VERTEX
  5
52
330
3C
100
AcDbEntity
  8
KRABICKA
 62
     9
100
AcDbVertex
100
AcDb2dVertex
 10
873.8722229257254
 20
89.49414339274779
 30
0.0
 70
     8
  0
VERTEX
  5
53
330
3C
100
AcDbEntity
  8
KRABICKA
 62
     9
100
AcDbVertex
100
AcDb2dVertex
 10
873.6092961745457
 20
89.5245014838197
 30
0.0
 70
     8
  0
VERTEX
  5
54
330
3C
100
AcDbEntity
  8
KRABICKA
 62
     9
100
AcDbVertex
100
AcDb2dVertex
 10
873.3673165290211
 20
89.55452107185923
 30
0.0
 70
     8
  0
VERTEX
  5
55
330
3C
100
AcDbEntity
  8
KRABICKA
 62
     9
100
AcDbVertex
100
AcDb2dVertex
 10
873.1444788247499
 20
89.58440236789718
 30
0.0
 70
     8
  0
VERTEX
  5
56
330
3C
100
AcDbEntity
  8
KRABICKA
 62
     9
100
AcDbVertex
100
AcDb2dVertex
 10
872.9389778973306
 20
89.61434558296446
 30
0.0
 70
     8
  0
VERTEX
  5
57
330
3C
100
AcDbEntity
  8
KRABICKA
 62
     9
100
AcDbVertex
100
AcDb2dVertex
 10
872.7489956779564
 20
89.64458040859287
 30
0.0
 70
     8
  0
VERTEX
  5
58
330
3C
100
AcDbEntity
  8
KRABICKA
 62
     9
100
AcDbVertex
100
AcDb2dVertex
 10
872.5726624802
 20
89.67545445831822
 30
0.0
 70
     8
  0
VERTEX
  5
59
330
3C
100
AcDbEntity
  8
KRABICKA
 62
     9
100
AcDbVertex
100
AcDb2dVertex
 10
872.4080957132288
 20
89.7073448261772
 30
0.0
 70
     8
  0
VERTEX
  5
5A
330
3C
100
AcDbEntity
  8
KRABICKA
 62
     9
100
AcDbVertex
100
AcDb2dVertex
 10
872.2534127862108
 20
89.7406286062066
 30
0.0
 70
     8
  0
VERTEX
  5
5B
330
3C
100
AcDbEntity
  8
KRABICKA
 62
     9
100
AcDbVertex
100
AcDb2dVertex
 10
872.1067311083132
 20
89.77568289244311
 30
0.0
 70
     8
  0
VERTEX
  5
5C
330
3C
100
AcDbEntity
  8
KRABICKA
 62
     9
100
AcDbVertex
100
AcDb2dVertex
 10
871.9661680887034
 20
89.81288477892352
 30
0.0
 70
     8
  0
VERTEX
  5
5D
330
3C
100
AcDbEntity
  8
KRABICKA
 62
     9
100
AcDbVertex
100
AcDb2dVertex
 10
871.8298411365493
 20
89.85261135968448
 30
0.0
 70
     8
  0
VERTEX
  5
5E
330
3C
100
AcDbEntity
  8
KRABICKA
 62
     9
100
AcDbVertex
100
AcDb2dVertex
 10
871.6958676610184
 20
89.89523972876282
 30
0.0
 70
     8
  0
VERTEX
  5
5F
330
3C
100
AcDbEntity
  8
KRABICKA
 62
     9
100
AcDbVertex
100
AcDb2dVertex
 10
871.5627287329791
 20
89.94105790193527
 30
0.0
 70
     8
  0
VERTEX
  5
60
330
3C
100
AcDbEntity
  8
KRABICKA
 62
     9
100
AcDbVertex
100
AcDb2dVertex
 10
871.4303600701033
 20
89.98999758193892
 30
0.0
 70
     8
  0
VERTEX
  5
61
330
3C
100
AcDbEntity
  8
KRABICKA
 62
     9
100
AcDbVertex
100
AcDb2dVertex
 10
871.2990610517632
 20
90.04190139325087
 30
0.0
 70
     8
  0
VERTEX
  5
62
330
3C
100
AcDbEntity
  8
KRABICKA
 62
     9
100
AcDbVertex
100
AcDb2dVertex
 10
871.1691310573321
 20
90.09661196034821
 30
0.0
 70
     8
  0
VERTEX
  5
63
330
3C
100
AcDbEntity
  8
KRABICKA
 62
     9
100
AcDbVertex
100
AcDb2dVertex
 10
871.0408694661822
 20
90.15397190770807
 30
0.0
 70
     8
  0
VERTEX
  5
64
330
3C
100
AcDbEntity
  8
KRABICKA
 62
     9
100
AcDbVertex
100
AcDb2dVertex
 10
870.9145756576864
 20
90.21382385980757
 30
0.0
 70
     8
  0
VERTEX
  5
65
330
3C
100
AcDbEntity
  8
KRABICKA
 62
     9
100
AcDbVertex
100
AcDb2dVertex
 10
870.7905490112173
 20
90.27601044112378
 30
0.0
 70
     8
  0
VERTEX
  5
66
330
3C
100
AcDbEntity
  8
KRABICKA
 62
     9
100
AcDbVertex
100
AcDb2dVertex
 10
870.6690889061476
 20
90.34037427613387
 30
0.0
 70
     8
  0
VERTEX
  5
67
330
3C
100
AcDbEntity
  8
KRABICKA
 62
     9
100
AcDbVertex
100
AcDb2dVertex
 10
870.5504305271968
 20
90.40681462798421
 30
0.0
 70
     8
  0
VERTEX
  5
68
330
3C
100
AcDbEntity
  8
KRABICKA
 62
     9
100
AcDbVertex
100
AcDb2dVertex
 10
870.4345522804736
 20
90.47545731449833
 30
0.0
 70
     8
  0
VERTEX
  5
69
330
3C
100
AcDbEntity
  8
KRABICKA
 62
     9
100
AcDbVertex
100
AcDb2dVertex
 10
870.3213683774327
 20
90.54648479216906
 30
0.0
 70
     8
  0
VERTEX
  5
6A
330
3C
100
AcDbEntity
  8
KRABICKA
 62
     9
100
AcDbVertex
100
AcDb2dVertex
 10
870.2107930295294
 20
90.62007951748928
 30
0.0
 70
     8
  0
VERTEX
  5
6B
330
3C
100
AcDbEntity
  8
KRABICKA
 62
     9
100
AcDbVertex
100
AcDb2dVertex
 10
870.1027404482193
 20
90.69642394695177
 30
0.0
 70
     8
  0
VERTEX
  5
6C
330
3C
100
AcDbEntity
  8
KRABICKA
 62
     9
100
AcDbVertex
100
AcDb2dVertex
 10
869.9971248449573
 20
90.77570053704944
 30
0.0
 70
     8
  0
VERTEX
  5
6D
330
3C
100
AcDbEntity
  8
KRABICKA
 62
     9
100
AcDbVertex
100
AcDb2dVertex
 10
869.8938604311988
 20
90.85809174427501
 30
0.0
 70
     8
  0
VERTEX
  5
6E
330
3C
100
AcDbEntity
  8
KRABICKA
 62
     9
100
AcDbVertex
100
AcDb2dVertex
 10
869.7928614183989
 20
90.94378002512144
 30
0.0
 70
     8
  0
VERTEX
  5
6F
330
3C
100
AcDbEntity
  8
KRABICKA
 62
     9
100
AcDbVertex
100
AcDb2dVertex
 10
869.6941295419078
 20
91.03296320163341
 30
0.0
 70
     8
  0
VERTEX
  5
70
330
3C
100
AcDbEntity
  8
KRABICKA
 62
     9
100
AcDbVertex
100
AcDb2dVertex
 10
869.5980166326549
 20
91.12590055806345
 30
0.0
 70
     8
  0
VERTEX
  5
71
330
3C
100
AcDbEntity
  8
KRABICKA
 62
     9
100
AcDbVertex
100
AcDb2dVertex
 10
869.5049620454643
 20
91.22286674421596
 30
0.0
 70
     8
  0
VERTEX
  5
72
330
3C
100
AcDbEntity
  8
KRABICKA
 62
     9
100
AcDbVertex
100
AcDb2dVertex
 10
869.4154051351601
 20
91.32413640989538
 30
0.0
 70
     8
  0
VERTEX
  5
73
330
3C
100
AcDbEntity
  8
KRABICKA
 62
     9
100
AcDbVertex
100
AcDb2dVertex
 10
869.3297852565665
 20
91.42998420490611
 30
0.0
 70
     8
  0
VERTEX
  5
74
330
3C
100
AcDbEntity
  8
KRABICKA
 62
     9
100
AcDbVertex
100
AcDb2dVertex
 10
869.2485417645077
 20
91.54068477905255
 30
0.0
 70
     8
  0
VERTEX
  5
75
330
3C
100
AcDbEntity
  8
KRABICKA
 62
     9
100
AcDbVertex
100
AcDb2dVertex
 10
869.172114013808
 20
91.65651278213918
 30
0.0
 70
     8
  0
VERTEX
  5
76
330
3C
100
AcDbEntity
  8
KRABICKA
 62
     9
100
AcDbVertex
100
AcDb2dVertex
 10
869.1009413592912
 20
91.77774286397033
 30
0.0
 70
     8
  0
VERTEX
  5
77
330
3C
100
AcDbEntity
  8
KRABICKA
 62
     9
100
AcDbVertex
100
AcDb2dVertex
 10
869.0353900998806
 20
91.90826461586841
 30
0.0
 70
     8
  0
VERTEX
  5
78
330
3C
100
AcDbEntity
  8
KRABICKA
 62
     9
100
AcDbVertex
100
AcDb2dVertex
 10
868.975534310895
 20
92.06642739522726
 30
0.0
 70
     8
  0
VERTEX
  5
79
330
3C
100
AcDbEntity
  8
KRABICKA
 62
     9
100
AcDbVertex
100
AcDb2dVertex
 10
868.9213750117518
 20
92.27419550095874
 30
0.0
 70
     8
  0
VERTEX
  5
7A
330
3C
100
AcDbEntity
  8
KRABICKA
 62
     9
100
AcDbVertex
100
AcDb2dVertex
 10
868.8729132218691
 20
92.55353323197454
 30
0.0
 70
     8
  0
VERTEX
  5
7B
330
3C
100
AcDbEntity
  8
KRABICKA
 62
     9
100
AcDbVertex
100
AcDb2dVertex
 10
868.8301499606641
 20
92.92640488718655
 30
0.0
 70
     8
  0
VERTEX
  5
7C
330
3C
100
AcDbEntity
  8
KRABICKA
 62
     9
100
AcDbVertex
100
AcDb2dVertex
 10
868.7930862475548
 20
93.41477476550654
 30
0.0
 70
     8
  0
VERTEX
  5
7D
330
3C
100
AcDbEntity
  8
KRABICKA
 62
     9
100
AcDbVertex
100
AcDb2dVertex
 10
868.7617231019585
 20
94.04060716584627
 30
0.0
 70
     8
  0
VERTEX
  5
7E
330
3C
100
AcDbEntity
  8
KRABICKA
 62
     9
100
AcDbVertex
100
AcDb2dVertex
 10
868.7360615432933
 20
94.82586638711756
 30
0.0
 70
     8
  0
VERTEX
  5
7F
330
3C
100
AcDbEntity
  8
KRABICKA
 62
     9
100
AcDbVertex
100
AcDb2dVertex
 10
868.7159836167746
 20
95.78507703008355
 30
0.0
 70
     8
  0
VERTEX
  5
80
330
3C
100
AcDbEntity
  8
KRABICKA
 62
     9
100
AcDbVertex
100
AcDb2dVertex
 10
868.7008954708108
 20
96.90300490291244
 30
0.0
 70
     8
  0
VERTEX
  5
81
330
3C
100
AcDbEntity
  8
KRABICKA
 62
     9
100
AcDbVertex
100
AcDb2dVertex
 10
868.6900842796084
 20
98.15697611562388
 30
0.0
 70
     8
  0
VERTEX
  5
82
330
3C
100
AcDbEntity
  8
KRABICKA
 62
     9
100
AcDbVertex
100
AcDb2dVertex
 10
868.6828372173739
 20
99.52431677823739
 30
0.0
 70
     8
  0
VERTEX
  5
83
330
3C
100
AcDbEntity
  8
KRABICKA
 62
     9
100
AcDbVertex
100
AcDb2dVertex
 10
868.6784414583135
 20
100.9823530007725
 30
0.0
 70
     8
  0
VERTEX
  5
84
330
3C
100
AcDbEntity
  8
KRABICKA
 62
     9
100
AcDbVertex
100
AcDb2dVertex
 10
868.676184176634
 20
102.508410893249
 30
0.0
 70
     8
  0
VERTEX
  5
85
330
3C
100
AcDbEntity
  8
KRABICKA
 62
     9
100
AcDbVertex
100
AcDb2dVertex
 10
868.6753525465414
 20
104.0798165656863
 30
0.0
 70
     8
  0
VERTEX
  5
86
330
3C
100
AcDbEntity
  8
KRABICKA
 62
     9
100
AcDbVertex
100
AcDb2dVertex
 10
868.6752337422426
 20
105.673896128104
 30
0.0
 70
     8
  0
VERTEX
  5
87
330
3C
100
AcDbEntity
  8
KRABICKA
 62
     9
100
AcDbVertex
100
AcDb2dVertex
 10
868.6753525465414
 20
107.2679756905217
 30
0.0
 70
     8
  0
VERTEX
  5
88
330
3C
100
AcDbEntity
  8
KRABICKA
 62
     9
100
AcDbVertex
100
AcDb2dVertex
 10
868.676184176634
 20
108.839381362959
 30
0.0
 70
     8
  0
VERTEX
  5
89
330
3C
100
AcDbEntity
  8
KRABICKA
 62
     9
100
AcDbVertex
100
AcDb2dVertex
 10
868.6784414583135
 20
110.3654392554355
 30
0.0
 70
     8
  0
VERTEX
  5
8A
330
3C
100
AcDbEntity
  8
KRABICKA
 62
     9
100
AcDbVertex
100
AcDb2dVertex
 10
868.6828372173739
 20
111.8234754779707
 30
0.0
 70
     8
  0
VERTEX
  5
8B
330
3C
100
AcDbEntity
  8
KRABICKA
 62
     9
100
AcDbVertex
100
AcDb2dVertex
 10
868.6900842796084
 20
113.1908161405842
 30
0.0
 70
     8
  0
VERTEX
  5
8C
330
3C
100
AcDbEntity
  8
KRABICKA
 62
     9
100
AcDbVertex
100
AcDb2dVertex
 10
868.7008954708108
 20
114.4447873532956
 30
0.0
 70
     8
  0
VERTEX
  5
8D
330
3C
100
AcDbEntity
  8
KRABICKA
 62
     9
100
AcDbVertex
100
AcDb2dVertex
 10
868.7159836167746
 20
115.5627152261245
 30
0.0
 70
     8
  0
VERTEX
  5
8E
330
3C
100
AcDbEntity
  8
KRABICKA
 62
     9
100
AcDbVertex
100
AcDb2dVertex
 10
868.7360615432933
 20
116.5219258690905
 30
0.0
 70
     8
  0
VERTEX
  5
8F
330
3C
100
AcDbEntity
  8
KRABICKA
 62
     9
100
AcDbVertex
100
AcDb2dVertex
 10
868.7617231019585
 20
117.3071850903618
 30
0.0
 70
     8
  0
VERTEX
  5
90
330
3C
100
AcDbEntity
  8
KRABICKA
 62
     9
100
AcDbVertex
100
AcDb2dVertex
 10
868.7930862475548
 20
117.9330174907015
 30
0.0
 70
     8
  0
VERTEX
  5
91
330
3C
100
AcDbEntity
  8
KRABICKA
 62
     9
100
AcDbVertex
100
AcDb2dVertex
 10
868.8301499606641
 20
118.4213873690215
 30
0.0
 70
     8
  0
VERTEX
  5
92
330
3C
100
AcDbEntity
  8
KRABICKA
 62
     9
100
AcDbVertex
100
AcDb2dVertex
 10
868.8729132218691
 20
118.7942590242335
 30
0.0
 70
     8
  0
VERTEX
  5
93
330
3C
100
AcDbEntity
  8
KRABICKA
 62
     9
100
AcDbVertex
100
AcDb2dVertex
 10
868.9213750117518
 20
119.0735967552493
 30
0.0
 70
     8
  0
VERTEX
  5
94
330
3C
100
AcDbEntity
  8
KRABICKA
 62
     9
100
AcDbVertex
100
AcDb2dVertex
 10
868.975534310895
 20
119.2813648609808
 30
0.0
 70
     8
  0
VERTEX
  5
95
330
3C
100
AcDbEntity
  8
KRABICKA
 62
     9
100
AcDbVertex
100
AcDb2dVertex
 10
869.0353900998806
 20
119.4395276403397
 30
0.0
 70
     8
  0
VERTEX
  5
96
330
3C
100
AcDbEntity
  8
KRABICKA
 62
     9
100
AcDbVertex
100
AcDb2dVertex
 10
869.1009413592912
 20
119.5700493922377
 30
0.0
 70
     8
  0
VERTEX
  5
97
330
3C
100
AcDbEntity
  8
KRABICKA
 62
     9
100
AcDbVertex
100
AcDb2dVertex
 10
869.172114013808
 20
119.6912794740689
 30
0.0
 70
     8
  0
VERTEX
  5
98
330
3C
100
AcDbEntity
  8
KRABICKA
 62
     9
100
AcDbVertex
100
AcDb2dVertex
 10
869.2485417645077
 20
119.8071074771555
 30
0.0
 70
     8
  0
VERTEX
  5
99
330
3C
100
AcDbEntity
  8
KRABICKA
 62
     9
100
AcDbVertex
100
AcDb2dVertex
 10
869.3297852565665
 20
119.917808051302
 30
0.0
 70
     8
  0
VERTEX
  5
9A
330
3C
100
AcDbEntity
  8
KRABICKA
 62
     9
100
AcDbVertex
100
AcDb2dVertex
 10
869.4154051351601
 20
120.0236558463127
 30
0.0
 70
     8
  0
VERTEX
  5
9B
330
3C
100
AcDbEntity
  8
KRABICKA
 62
     9
100
AcDbVertex
100
AcDb2dVertex
 10
869.5049620454643
 20
120.1249255119921
 30
0.0
 70
     8
  0
VERTEX
  5
9C
330
3C
100
AcDbEntity
  8
KRABICKA
 62
     9
100
AcDbVertex
100
AcDb2dVertex
 10
869.5980166326549
 20
120.2218916981446
 30
0.0
 70
     8
  0
VERTEX
  5
9D
330
3C
100
AcDbEntity
  8
KRABICKA
 62
     9
100
AcDbVertex
100
AcDb2dVertex
 10
869.6941295419078
 20
120.3148290545747
 30
0.0
 70
     8
  0
VERTEX
  5
9E
330
3C
100
AcDbEntity
  8
KRABICKA
 62
     9
100
AcDbVertex
100
AcDb2dVertex
 10
869.7928614183989
 20
120.4040122310866
 30
0.0
 70
     8
  0
VERTEX
  5
9F
330
3C
100
AcDbEntity
  8
KRABICKA
 62
     9
100
AcDbVertex
100
AcDb2dVertex
 10
869.8938604311988
 20
120.489700511933
 30
0.0
 70
     8
  0
VERTEX
  5
A0
330
3C
100
AcDbEntity
  8
KRABICKA
 62
     9
100
AcDbVertex
100
AcDb2dVertex
 10
869.9971248449573
 20
120.5720917191587
 30
0.0
 70
     8
  0
VERTEX
  5
A1
330
3C
100
AcDbEntity
  8
KRABICKA
 62
     9
100
AcDbVertex
100
AcDb2dVertex
 10
870.1027404482193
 20
120.6513683092563
 30
0.0
 70
     8
  0
VERTEX
  5
A2
330
3C
100
AcDbEntity
  8
KRABICKA
 62
     9
100
AcDbVertex
100
AcDb2dVertex
 10
870.2107930295294
 20
120.7277127387188
 30
0.0
 70
     8
  0
VERTEX
  5
A3
330
3C
100
AcDbEntity
  8
KRABICKA
 62
     9
100
AcDbVertex
100
AcDb2dVertex
 10
870.3213683774327
 20
120.801307464039
 30
0.0
 70
     8
  0
VERTEX
  5
A4
330
3C
100
AcDbEntity
  8
KRABICKA
 62
     9
100
AcDbVertex
100
AcDb2dVertex
 10
870.4345522804736
 20
120.8723349417097
 30
0.0
 70
     8
  0
VERTEX
  5
A5
330
3C
100
AcDbEntity
  8
KRABICKA
 62
     9
100
AcDbVertex
100
AcDb2dVertex
 10
870.5504305271968
 20
120.9409776282239
 30
0.0
 70
     8
  0
VERTEX
  5
A6
330
3C
100
AcDbEntity
  8
KRABICKA
 62
     9
100
AcDbVertex
100
AcDb2dVertex
 10
870.6690889061476
 20
121.0074179800742
 30
0.0
 70
     8
  0
VERTEX
  5
A7
330
3C
100
AcDbEntity
  8
KRABICKA
 62
     9
100
AcDbVertex
100
AcDb2dVertex
 10
870.7905490112173
 20
121.0717818150843
 30
0.0
 70
     8
  0
VERTEX
  5
A8
330
3C
100
AcDbEntity
  8
KRABICKA
 62
     9
100
AcDbVertex
100
AcDb2dVertex
 10
870.9145756576864
 20
121.1339683964005
 30
0.0
 70
     8
  0
VERTEX
  5
A9
330
3C
100
AcDbEntity
  8
KRABICKA
 62
     9
100
AcDbVertex
100
AcDb2dVertex
 10
871.0408694661822
 20
121.1938203485
 30
0.0
 70
     8
  0
VERTEX
  5
AA
330
3C
100
AcDbEntity
  8
KRABICKA
 62
     9
100
AcDbVertex
100
AcDb2dVertex
 10
871.1691310573321
 20
121.2511802958599
 30
0.0
 70
     8
  0
VERTEX
  5
AB
330
3C
100
AcDbEntity
  8
KRABICKA
 62
     9
100
AcDbVertex
100
AcDb2dVertex
 10
871.2990610517632
 20
121.3058908629572
 30
0.0
 70
     8
  0
VERTEX
  5
AC
330
3C
100
AcDbEntity
  8
KRABICKA
 62
     9
100
AcDbVertex
100
AcDb2dVertex
 10
871.4303600701033
 20
121.3577946742691
 30
0.0
 70
     8
  0
VERTEX
  5
AD
330
3C
100
AcDbEntity
  8
KRABICKA
 62
     9
100
AcDbVertex
100
AcDb2dVertex
 10
871.5627287329791
 20
121.4067343542728
 30
0.0
 70
     8
  0
VERTEX
  5
AE
330
3C
100
AcDbEntity
  8
KRABICKA
 62
     9
100
AcDbVertex
100
AcDb2dVertex
 10
871.6958676610184
 20
121.4525525274453
 30
0.0
 70
     8
  0
VERTEX
  5
AF
330
3C
100
AcDbEntity
  8
KRABICKA
 62
     9
100
AcDbVertex
100
AcDb2dVertex
 10
871.8298411365493
 20
121.4951808965236
 30
0.0
 70
     8
  0
VERTEX
  5
B0
330
3C
100
AcDbEntity
  8
KRABICKA
 62
     9
100
AcDbVertex
100
AcDb2dVertex
 10
871.9661680887034
 20
121.5349074772846
 30
0.0
 70
     8
  0
VERTEX
  5
B1
330
3C
100
AcDbEntity
  8
KRABICKA
 62
     9
100
AcDbVertex
100
AcDb2dVertex
 10
872.1067311083132
 20
121.572109363765
 30
0.0
 70
     8
  0
VERTEX
  5
B2
330
3C
100
AcDbEntity
  8
KRABICKA
 62
     9
100
AcDbVertex
100
AcDb2dVertex
 10
872.2534127862108
 20
121.6071636500015
 30
0.0
 70
     8
  0
VERTEX
  5
B3
330
3C
100
AcDbEntity
  8
KRABICKA
 62
     9
100
AcDbVertex
100
AcDb2dVertex
 10
872.4080957132288
 20
121.6404474300309
 30
0.0
 70
     8
  0
VERTEX
  5
B4
330
3C
100
AcDbEntity
  8
KRABICKA
 62
     9
100
AcDbVertex
100
AcDb2dVertex
 10
872.5726624802
 20
121.6723377978899
 30
0.0
 70
     8
  0
VERTEX
  5
B5
330
3C
100
AcDbEntity
  8
KRABICKA
 62
     9
100
AcDbVertex
100
AcDb2dVertex
 10
872.7489956779564
 20
121.7032118476152
 30
0.0
 70
     8
  0
VERTEX
  5
B6
330
3C
100
AcDbEntity
  8
KRABICKA
 62
     9
100
AcDbVertex
100
AcDb2dVertex
 10
872.9389778973306
 20
121.7334466732436
 30
0.0
 70
     8
  0
VERTEX
  5
B7
330
3C
100
AcDbEntity
  8
KRABICKA
 62
     9
100
AcDbVertex
100
AcDb2dVertex
 10
873.1444788247499
 20
121.7633898883109
 30
0.0
 70
     8
  0
VERTEX
  5
B8
330
3C
100
AcDbEntity
  8
KRABICKA
 62
     9
100
AcDbVertex
100
AcDb2dVertex
 10
873.3673165290211
 20
121.7932711843489
 30
0.0
 70
     8
  0
VERTEX
  5
B9
330
3C
100
AcDbEntity
  8
KRABICKA
 62
     9
100
AcDbVertex
100
AcDb2dVertex
 10
873.6092961745457
 20
121.8232907723884
 30
0.0
 70
     8
  0
VERTEX
  5
BA
330
3C
100
AcDbEntity
  8
KRABICKA
 62
     9
100
AcDbVertex
100
AcDb2dVertex
 10
873.8722229257254
 20
121.8536488634603
 30
0.0
 70
     8
  0
VERTEX
  5
BB
330
3C
100
AcDbEntity
  8
KRABICKA
 62
     9
100
AcDbVertex
100
AcDb2dVertex
 10
874.1579019469616
 20
121.8845456685955
 30
0.0
 70
     8
  0
VERTEX
  5
BC
330
3C
100
AcDbEntity
  8
KRABICKA
 62
     9
100
AcDbVertex
100
AcDb2dVertex
 10
874.4681384026565
 20
121.9161813988249
 30
0.0
 70
     8
  0
VERTEX
  5
BD
330
3C
100
AcDbEntity
  8
KRABICKA
 62
     9
100
AcDbVertex
100
AcDb2dVertex
 10
874.8047374572108
 20
121.9487562651794
 30
0.0
 70
     8
  0
VERTEX
  5
BE
330
3C
100
AcDbEntity
  8
KRABICKA
 62
     9
100
AcDbVertex
100
AcDb2dVertex
 10
875.169504275027
 20
121.9824704786897
 30
0.0
 70
     8
  0
VERTEX
  5
BF
330
3C
100
AcDbEntity
  8
KRABICKA
 62
     9
100
AcDbVertex
100
AcDb2dVertex
 10
875.5629819851295
 20
122.01740093583
 30
0.0
 70
     8
  0
VERTEX
  5
C0
330
3C
100
AcDbEntity
  8
KRABICKA
 62
     9
100
AcDbVertex
100
AcDb2dVertex
 10
875.9806655750356
 20
122.0531312748461
 30
0.0
 70
     8
  0
VERTEX
  5
C1
330
3C
100
AcDbEntity
  8
KRABICKA
 62
     9
100
AcDbVertex
100
AcDb2dVertex
 10
876.4167879968864
 20
122.0891218194273
 30
0.0
 70
     8
  0
VERTEX
  5
C2
330
3C
100
AcDbEntity
  8
KRABICKA
 62
     9
100
AcDbVertex
100
AcDb2dVertex
 10
876.865582202822
 20
122.1248328932627
 30
0.0
 70
     8
  0
VERTEX
  5
C3
330
3C
100
AcDbEntity
  8
KRABICKA
 62
     9
100
AcDbVertex
100
AcDb2dVertex
 10
877.3212811449836
 20
122.1597248200416
 30
0.0
 70
     8
  0
VERTEX
  5
C4
330
3C
100
AcDbEntity
  8
KRABICKA
 62
     9
100
AcDbVertex
100
AcDb2dVertex
 10
877.7781177755116
 20
122.193257923453
 30
0.0
 70
     8
  0
VERTEX
  5
C5
330
3C
100
AcDbEntity
  8
KRABICKA
 62
     9
100
AcDbVertex
100
AcDb2dVertex
 10
878.2303250465465
 20
122.224892527186
 30
0.0
 70
     8
  0
VERTEX
  5
C6
330
3C
100
AcDbEntity
  8
KRABICKA
 62
     9
100
AcDbVertex
100
AcDb2dVertex
 10
878.6721359102294
 20
122.25408895493
 30
0.0
 70
     8
  0
VERTEX
  5
C7
330
3C
100
AcDbEntity
  8
KRABICKA
 62
     9
100
AcDbVertex
100
AcDb2dVertex
 10
879.0997030105762
 20
122.2804217112393
 30
0.0
 70
     8
  0
VERTEX
  5
C8
330
3C
100
AcDbEntity
  8
KRABICKA
 62
     9
100
AcDbVertex
100
AcDb2dVertex
 10
879.5168577591073
 20
122.3039220241302
 30
0.0
 70
     8
  0
VERTEX
  5
C9
330
3C
100
AcDbEntity
  8
KRABICKA
 62
     9
100
AcDbVertex
100
AcDb2dVertex
 10
879.9293512592184
 20
122.3247353024844
 30
0.0
 70
     8
  0
VERTEX
  5
CA
330
3C
100
AcDbEntity
  8
KRABICKA
 62
     9
100
AcDbVertex
100
AcDb2dVertex
 10
880.3429346143053
 20
122.3430069551833
 30
0.0
 70
     8
  0
VERTEX
  5
CB
330
3C
100
AcDbEntity
  8
KRABICKA
 62
     9
100
AcDbVertex
100
AcDb2dVertex
 10
880.7633589277639
 20
122.3588823911085
 30
0.0
 70
     8
  0
VERTEX
  5
CC
330
3C
100
AcDbEntity
  8
KRABICKA
 62
     9
100
AcDbVertex
100
AcDb2dVertex
 10
881.1963753029898
 20
122.3725070191418
 30
0.0
 70
     8
  0
VERTEX
  5
CD
330
3C
100
AcDbEntity
  8
KRABICKA
 62
     9
100
AcDbVertex
100
AcDb2dVertex
 10
881.6477348433791
 20
122.3840262481646
 30
0.0
 70
     8
  0
VERTEX
  5
CE
330
3C
100
AcDbEntity
  8
KRABICKA
 62
     9
100
AcDbVertex
100
AcDb2dVertex
 10
882.1231886523273
 20
122.3935854870585
 30
0.0
 70
     8
  0
VERTEX
  5
CF
330
3C
100
AcDbEntity
  8
KRABICKA
 62
     9
100
AcDbVertex
100
AcDb2dVertex
 10
882.6269075374154
 20
122.4013365814359
 30
0.0
 70
     8
  0
VERTEX
  5
D0
330
3C
100
AcDbEntity
  8
KRABICKA
 62
     9
100
AcDbVertex
100
AcDb2dVertex
 10
883.156741122964
 20
122.4074571238324
 30
0.0
 70
     8
  0
VERTEX
  5
D1
330
3C
100
AcDbEntity
  8
KRABICKA
 62
     9
100
AcDbVertex
100
AcDb2dVertex
 10
883.7089587374787
 20
122.4121311435143
 30
0.0
 70
     8
  0
VERTEX
  5
D2
330
3C
100
AcDbEntity
  8
KRABICKA
 62
     9
100
AcDbVertex
100
AcDb2dVertex
 10
884.2798297094654
 20
122.4155426697477
 30
0.0
 70
     8
  0
VERTEX
  5
D3
330
3C
100
AcDbEntity
  8
KRABICKA
 62
     9
100
AcDbVertex
100
AcDb2dVertex
 10
884.8656233674294
 20
122.4178757317991
 30
0.0
 70
     8
  0
VERTEX
  5
D4
330
3C
100
AcDbEntity
  8
KRABICKA
 62
     9
100
AcDbVertex
100
AcDb2dVertex
 10
885.4626090398765
 20
122.4193143589347
 30
0.0
 70
     8
  0
VERTEX
  5
D5
330
3C
100
AcDbEntity
  8
KRABICKA
 62
     9
100
AcDbVertex
100
AcDb2dVertex
 10
886.0670560553124
 20
122.4200425804207
 30
0.0
 70
     8
  0
VERTEX
  5
D6
330
3C
100
AcDbEntity
  8
KRABICKA
 62
     9
100
AcDbVertex
100
AcDb2dVertex
 10
886.6752337422425
 20
122.4202444255236
 30
0.0
 70
     8
  0
VERTEX
  5
D7
330
3C
100
AcDbEntity
  8
KRABICKA
 62
     9
100
AcDbVertex
100
AcDb2dVertex
 10
887.2834114291727
 20
122.4200425804207
 30
0.0
 70
     8
  0
VERTEX
  5
D8
330
3C
100
AcDbEntity
  8
KRABICKA
 62
     9
100
AcDbVertex
100
AcDb2dVertex
 10
887.8878584446086
 20
122.4193143589347
 30
0.0
 70
     8
  0
VERTEX
  5
D9
330
3C
100
AcDbEntity
  8
KRABICKA
 62
     9
100
AcDbVertex
100
AcDb2dVertex
 10
888.4848441170557
 20
122.4178757317991
 30
0.0
 70
     8
  0
VERTEX
  5
DA
330
3C
100
AcDbEntity
  8
KRABICKA
 62
     9
100
AcDbVertex
100
AcDb2dVertex
 10
889.0706377750198
 20
122.4155426697477
 30
0.0
 70
     8
  0
VERTEX
  5
DB
330
3C
100
AcDbEntity
  8
KRABICKA
 62
     9
100
AcDbVertex
100
AcDb2dVertex
 10
889.6415087470064
 20
122.4121311435143
 30
0.0
 70
     8
  0
VERTEX
  5
DC
330
3C
100
AcDbEntity
  8
KRABICKA
 62
     9
100
AcDbVertex
100
AcDb2dVertex
 10
890.1937263615211
 20
122.4074571238324
 30
0.0
 70
     8
  0
VERTEX
  5
DD
330
3C
100
AcDbEntity
  8
KRABICKA
 62
     9
100
AcDbVertex
100
AcDb2dVertex
 10
890.7235599470698
 20
122.4013365814359
 30
0.0
 70
     8
  0
VERTEX
  5
DE
330
3C
100
AcDbEntity
  8
KRABICKA
 62
     9
100
AcDbVertex
100
AcDb2dVertex
 10
891.227278832158
 20
122.3935854870585
 30
0.0
 70
     8
  0
VERTEX
  5
DF
330
3C
100
AcDbEntity
  8
KRABICKA
 62
     9
100
AcDbVertex
100
AcDb2dVertex
 10
891.7027326411062
 20
122.3840262481646
 30
0.0
 70
     8
  0
VERTEX
  5
E0
330
3C
100
AcDbEntity
  8
KRABICKA
 62
     9
100
AcDbVertex
100
AcDb2dVertex
 10
892.1540921814953
 20
122.3725070191418
 30
0.0
 70
     8
  0
VERTEX
  5
E1
330
3C
100
AcDbEntity
  8
KRABICKA
 62
     9
100
AcDbVertex
100
AcDb2dVertex
 10
892.5871085567212
 20
122.3588823911085
 30
0.0
 70
     8
  0
VERTEX
  5
E2
330
3C
100
AcDbEntity
  8
KRABICKA
 62
     9
100
AcDbVertex
100
AcDb2dVertex
 10
893.0075328701798
 20
122.3430069551833
 30
0.0
 70
     8
  0
VERTEX
  5
E3
330
3C
100
AcDbEntity
  8
KRABICKA
 62
     9
100
AcDbVertex
100
AcDb2dVertex
 10
893.4211162252667
 20
122.3247353024844
 30
0.0
 70
     8
  0
VERTEX
  5
E4
330
3C
100
AcDbEntity
  8
KRABICKA
 62
     9
100
AcDbVertex
100
AcDb2dVertex
 10
893.8336097253777
 20
122.3039220241302
 30
0.0
 70
     8
  0
VERTEX
  5
E5
330
3C
100
AcDbEntity
  8
KRABICKA
 62
     9
100
AcDbVertex
100
AcDb2dVertex
 10
894.2507644739089
 20
122.2804217112393
 30
0.0
 70
     8
  0
VERTEX
  5
E6
330
3C
100
AcDbEntity
  8
KRABICKA
 62
     9
100
AcDbVertex
100
AcDb2dVertex
 10
894.6783315742559
 20
122.25408895493
 30
0.0
 70
     8
  0
VERTEX
  5
E7
330
3C
100
AcDbEntity
  8
KRABICKA
 62
     9
100
AcDbVertex
100
AcDb2dVertex
 10
895.1201424379386
 20
122.224892527186
 30
0.0
 70
     8
  0
VERTEX
  5
E8
330
3C
100
AcDbEntity
  8
KRABICKA
 62
     9
100
AcDbVertex
100
AcDb2dVertex
 10
895.5723497089733
 20
122.193257923453
 30
0.0
 70
     8
  0
VERTEX
  5
E9
330
3C
100
AcDbEntity
  8
KRABICKA
 62
     9
100
AcDbVertex
100
AcDb2dVertex
 10
896.0291863395013
 20
122.1597248200416
 30
0.0
 70
     8
  0
VERTEX
  5
EA
330
3C
100
AcDbEntity
  8
KRABICKA
 62
     9
100
AcDbVertex
100
AcDb2dVertex
 10
896.4848852816629
 20
122.1248328932627
 30
0.0
 70
     8
  0
VERTEX
  5
EB
330
3C
100
AcDbEntity
  8
KRABICKA
 62
     9
100
AcDbVertex
100
AcDb2dVertex
 10
896.9336794875987
 20
122.0891218194273
 30
0.0
 70
     8
  0
VERTEX
  5
EC
330
3C
100
AcDbEntity
  8
KRABICKA
 62
     9
100
AcDbVertex
100
AcDb2dVertex
 10
897.3698019094495
 20
122.0531312748461
 30
0.0
 70
     8
  0
VERTEX
  5
ED
330
3C
100
AcDbEntity
  8
KRABICKA
 62
     9
100
AcDbVertex
100
AcDb2dVertex
 10
897.7874854993556
 20
122.01740093583
 30
0.0
 70
     8
  0
VERTEX
  5
EE
330
3C
100
AcDbEntity
  8
KRABICKA
 62
     9
100
AcDbVertex
100
AcDb2dVertex
 10
898.1809632094579
 20
121.9824704786897
 30
0.0
 70
     8
  0
VERTEX
  5
EF
330
3C
100
AcDbEntity
  8
KRABICKA
 62
     9
100
AcDbVertex
100
AcDb2dVertex
 10
898.5457300272742
 20
121.9487562651794
 30
0.0
 70
     8
  0
VERTEX
  5
F0
330
3C
100
AcDbEntity
  8
KRABICKA
 62
     9
100
AcDbVertex
100
AcDb2dVertex
 10
898.8823290818286
 20
121.9161813988249
 30
0.0
 70
     8
  0
VERTEX
  5
F1
330
3C
100
AcDbEntity
  8
KRABICKA
 62
     9
100
AcDbVertex
100
AcDb2dVertex
 10
899.1925655375233
 20
121.8845456685955
 30
0.0
 70
     8
  0
VERTEX
  5
F2
330
3C
100
AcDbEntity
  8
KRABICKA
 62
     9
100
AcDbVertex
100
AcDb2dVertex
 10
899.4782445587597
 20
121.8536488634603
 30
0.0
 70
     8
  0
VERTEX
  5
F3
330
3C
100
AcDbEntity
  8
KRABICKA
 62
     9
100
AcDbVertex
100
AcDb2dVertex
 10
899.7411713099394
 20
121.8232907723884
 30
0.0
 70
     8
  0
VERTEX
  5
F4
330
3C
100
AcDbEntity
  8
KRABICKA
 62
     9
100
AcDbVertex
100
AcDb2dVertex
 10
899.983150955464
 20
121.7932711843489
 30
0.0
 70
     8
  0
VERTEX
  5
F5
330
3C
100
AcDbEntity
  8
KRABICKA
 62
     9
100
AcDbVertex
100
AcDb2dVertex
 10
900.2059886597351
 20
121.7633898883109
 30
0.0
 70
     8
  0
VERTEX
  5
F6
330
3C
100
AcDbEntity
  8
KRABICKA
 62
     9
100
AcDbVertex
100
AcDb2dVertex
 10
900.4114895871543
 20
121.7334466732436
 30
0.0
 70
     8
  0
VERTEX
  5
F7
330
3C
100
AcDbEntity
  8
KRABICKA
 62
     9
100
AcDbVertex
100
AcDb2dVertex
 10
900.6014718065285
 20
121.7032118476152
 30
0.0
 70
     8
  0
VERTEX
  5
F8
330
3C
100
AcDbEntity
  8
KRABICKA
 62
     9
100
AcDbVertex
100
AcDb2dVertex
 10
900.7778050042849
 20
121.6723377978899
 30
0.0
 70
     8
  0
VERTEX
  5
F9
330
3C
100
AcDbEntity
  8
KRABICKA
 62
     9
100
AcDbVertex
100
AcDb2dVertex
 10
900.9423717712561
 20
121.6404474300309
 30
0.0
 70
     8
  0
VERTEX
  5
FA
330
3C
100
AcDbEntity
  8
KRABICKA
 62
     9
100
AcDbVertex
100
AcDb2dVertex
 10
901.0970546982743
 20
121.6071636500015
 30
0.0
 70
     8
  0
VERTEX
  5
FB
330
3C
100
AcDbEntity
  8
KRABICKA
 62
     9
100
AcDbVertex
100
AcDb2dVertex
 10
901.2437363761719
 20
121.572109363765
 30
0.0
 70
     8
  0
VERTEX
  5
FC
330
3C
100
AcDbEntity
  8
KRABICKA
 62
     9
100
AcDbVertex
100
AcDb2dVertex
 10
901.3842993957817
 20
121.5349074772846
 30
0.0
 70
     8
  0
VERTEX
  5
FD
330
3C
100
AcDbEntity
  8
KRABICKA
 62
     9
100
AcDbVertex
100
AcDb2dVertex
 10
901.5206263479358
 20
121.4951808965236
 30
0.0
 70
     8
  0
VERTEX
  5
FE
330
3C
100
AcDbEntity
  8
KRABICKA
 62
     9
100
AcDbVertex
100
AcDb2dVertex
 10
901.6545998234667
 20
121.4525525274453
 30
0.0
 70
     8
  0
VERTEX
  5
FF
330
3C
100
AcDbEntity
  8
KRABICKA
 62
     9
100
AcDbVertex
100
AcDb2dVertex
 10
901.787738751506
 20
121.4067343542728
 30
0.0
 70
     8
  0
VERTEX
  5
100
330
3C
100
AcDbEntity
  8
KRABICKA
 62
     9
100
AcDbVertex
100
AcDb2dVertex
 10
901.920107414382
 20
121.3577946742691
 30
0.0
 70
     8
  0
VERTEX
  5
101
330
3C
100
AcDbEntity
  8
KRABICKA
 62
     9
100
AcDbVertex
100
AcDb2dVertex
 10
902.0514064327219
 20
121.3058908629572
 30
0.0
 70
     8
  0
VERTEX
  5
102
330
3C
100
AcDbEntity
  8
KRABICKA
 62
     9
100
AcDbVertex
100
AcDb2dVertex
 10
902.181336427153
 20
121.2511802958599
 30
0.0
 70
     8
  0
VERTEX
  5
103
330
3C
100
AcDbEntity
  8
KRABICKA
 62
     9
100
AcDbVertex
100
AcDb2dVertex
 10
902.3095980183029
 20
121.1938203485
 30
0.0
 70
     8
  0
VERTEX
  5
104
330
3C
100
AcDbEntity
  8
KRABICKA
 62
     9
100
AcDbVertex
100
AcDb2dVertex
 10
902.4358918267987
 20
121.1339683964005
 30
0.0
 70
     8
  0
VERTEX
  5
105
330
3C
100
AcDbEntity
  8
KRABICKA
 62
     9
100
AcDbVertex
100
AcDb2dVertex
 10
902.5599184732678
 20
121.0717818150843
 30
0.0
 70
     8
  0
VERTEX
  5
106
330
3C
100
AcDbEntity
  8
KRABICKA
 62
     9
100
AcDbVertex
100
AcDb2dVertex
 10
902.6813785783375
 20
121.0074179800742
 30
0.0
 70
     8
  0
VERTEX
  5
107
330
3C
100
AcDbEntity
  8
KRABICKA
 62
     9
100
AcDbVertex
100
AcDb2dVertex
 10
902.8000369572881
 20
120.9409776282239
 30
0.0
 70
     8
  0
VERTEX
  5
108
330
3C
100
AcDbEntity
  8
KRABICKA
 62
     9
100
AcDbVertex
100
AcDb2dVertex
 10
902.9159152040115
 20
120.8723349417097
 30
0.0
 70
     8
  0
VERTEX
  5
109
330
3C
100
AcDbEntity
  8
KRABICKA
 62
     9
100
AcDbVertex
100
AcDb2dVertex
 10
903.0290991070526
 20
120.801307464039
 30
0.0
 70
     8
  0
VERTEX
  5
10A
330
3C
100
AcDbEntity
  8
KRABICKA
 62
     9
100
AcDbVertex
100
AcDb2dVertex
 10
903.1396744549557
 20
120.7277127387188
 30
0.0
 70
     8
  0
VERTEX
  5
10B
330
3C
100
AcDbEntity
  8
KRABICKA
 62
     9
100
AcDbVertex
100
AcDb2dVertex
 10
903.2477270362658
 20
120.6513683092563
 30
0.0
 70
     8
  0
VERTEX
  5
10C
330
3C
100
AcDbEntity
  8
KRABICKA
 62
     9
100
AcDbVertex
100
AcDb2dVertex
 10
903.3533426395278
 20
120.5720917191587
 30
0.0
 70
     8
  0
VERTEX
  5
10D
330
3C
100
AcDbEntity
  8
KRABICKA
 62
     9
100
AcDbVertex
100
AcDb2dVertex
 10
903.4566070532862
 20
120.489700511933
 30
0.0
 70
     8
  0
VERTEX
  5
10E
330
3C
100
AcDbEntity
  8
KRABICKA
 62
     9
100
AcDbVertex
100
AcDb2dVertex
 10
903.5576060660861
 20
120.4040122310866
 30
0.0
 70
     8
  0
VERTEX
  5
10F
330
3C
100
AcDbEntity
  8
KRABICKA
 62
     9
100
AcDbVertex
100
AcDb2dVertex
 10
903.6563379425771
 20
120.3148290545747
 30
0.0
 70
     8
  0
VERTEX
  5
110
330
3C
100
AcDbEntity
  8
KRABICKA
 62
     9
100
AcDbVertex
100
AcDb2dVertex
 10
903.7524508518302
 20
120.2218916981446
 30
0.0
 70
     8
  0
VERTEX
  5
111
330
3C
100
AcDbEntity
  8
KRABICKA
 62
     9
100
AcDbVertex
100
AcDb2dVertex
 10
903.8455054390208
 20
120.1249255119921
 30
0.0
 70
     8
  0
VERTEX
  5
112
330
3C
100
AcDbEntity
  8
KRABICKA
 62
     9
100
AcDbVertex
100
AcDb2dVertex
 10
903.9350623493248
 20
120.0236558463127
 30
0.0
 70
     8
  0
VERTEX
  5
113
330
3C
100
AcDbEntity
  8
KRABICKA
 62
     9
100
AcDbVertex
100
AcDb2dVertex
 10
904.0206822279186
 20
119.917808051302
 30
0.0
 70
     8
  0
VERTEX
  5
114
330
3C
100
AcDbEntity
  8
KRABICKA
 62
     9
100
AcDbVertex
100
AcDb2dVertex
 10
904.1019257199772
 20
119.8071074771555
 30
0.0
 70
     8
  0
VERTEX
  5
115
330
3C
100
AcDbEntity
  8
KRABICKA
 62
     9
100
AcDbVertex
100
AcDb2dVertex
 10
904.1783534706771
 20
119.6912794740689
 30
0.0
 70
     8
  0
VERTEX
  5
116
330
3C
100
AcDbEntity
  8
KRABICKA
 62
     9
100
AcDbVertex
100
AcDb2dVertex
 10
904.2495261251939
 20
119.5700493922377
 30
0.0
 70
     8
  0
VERTEX
  5
117
330
3C
100
AcDbEntity
  8
KRABICKA
 62
     9
100
AcDbVertex
100
AcDb2dVertex
 10
904.3150773846045
 20
119.4395276403397
 30
0.0
 70
     8
  0
VERTEX
  5
118
330
3C
100
AcDbEntity
  8
KRABICKA
 62
     9
100
AcDbVertex
100
AcDb2dVertex
 10
904.3749331735902
 20
119.2813648609808
 30
0.0
 70
     8
  0
VERTEX
  5
119
330
3C
100
AcDbEntity
  8
KRABICKA
 62
     9
100
AcDbVertex
100
AcDb2dVertex
 10
904.4290924727331
 20
119.0735967552493
 30
0.0
 70
     8
  0
VERTEX
  5
11A
330
3C
100
AcDbEntity
  8
KRABICKA
 62
     9
100
AcDbVertex
100
AcDb2dVertex
 10
904.477554262616
 20
118.7942590242335
 30
0.0
 70
     8
  0
VERTEX
  5
11B
330
3C
100
AcDbEntity
  8
KRABICKA
 62
     9
100
AcDbVertex
100
AcDb2dVertex
 10
904.520317523821
 20
118.4213873690215
 30
0.0
 70
     8
  0
VERTEX
  5
11C
330
3C
100
AcDbEntity
  8
KRABICKA
 62
     9
100
AcDbVertex
100
AcDb2dVertex
 10
904.5573812369303
 20
117.9330174907015
 30
0.0
 70
     8
  0
VERTEX
  5
11D
330
3C
100
AcDbEntity
  8
KRABICKA
 62
     9
100
AcDbVertex
100
AcDb2dVertex
 10
904.5887443825264
 20
117.3071850903618
 30
0.0
 70
     8
  0
VERTEX
  5
11E
330
3C
100
AcDbEntity
  8
KRABICKA
 62
     9
100
AcDbVertex
100
AcDb2dVertex
 10
904.6144059411918
 20
116.5219258690905
 30
0.0
 70
     8
  0
VERTEX
  5
11F
330
3C
100
AcDbEntity
  8
KRABICKA
 62
     9
100
AcDbVertex
100
AcDb2dVertex
 10
904.6344838677105
 20
115.5627152261245
 30
0.0
 70
     8
  0
VERTEX
  5
120
330
3C
100
AcDbEntity
  8
KRABICKA
 62
     9
100
AcDbVertex
100
AcDb2dVertex
 10
904.6495720136743
 20
114.4447873532956
 30
0.0
 70
     8
  0
VERTEX
  5
121
330
3C
100
AcDbEntity
  8
KRABICKA
 62
     9
100
AcDbVertex
100
AcDb2dVertex
 10
904.6603832048766
 20
113.1908161405842
 30
0.0
 70
     8
  0
VERTEX
  5
122
330
3C
100
AcDbEntity
  8
KRABICKA
 62
     9
100
AcDbVertex
100
AcDb2dVertex
 10
904.6676302671112
 20
111.8234754779707
 30
0.0
 70
     8
  0
VERTEX
  5
123
330
3C
100
AcDbEntity
  8
KRABICKA
 62
     9
100
AcDbVertex
100
AcDb2dVertex
 10
904.6720260261716
 20
110.3654392554355
 30
0.0
 70
     8
  0
VERTEX
  5
124
330
3C
100
AcDbEntity
  8
KRABICKA
 62
     9
100
AcDbVertex
100
AcDb2dVertex
 10
904.6742833078511
 20
108.839381362959
 30
0.0
 70
     8
  0
VERTEX
  5
125
330
3C
100
AcDbEntity
  8
KRABICKA
 62
     9
100
AcDbVertex
100
AcDb2dVertex
 10
904.6751149379435
 20
107.2679756905217
 30
0.0
 70
     8
  0
VERTEX
  5
126
330
3C
100
AcDbEntity
  8
KRABICKA
 62
     9
100
AcDbVertex
100
AcDb2dVertex
 10
904.6752337422427
 20
105.673896128104
 30
0.0
 70
     8
  0
VERTEX
  5
127
330
3C
100
AcDbEntity
  8
KRABICKA
 62
     9
100
AcDbVertex
100
AcDb2dVertex
 10
904.6751149379435
 20
104.0798165656863
 30
0.0
 70
     8
  0
VERTEX
  5
128
330
3C
100
AcDbEntity
  8
KRABICKA
 62
     9
100
AcDbVertex
100
AcDb2dVertex
 10
904.6742833078511
 20
102.508410893249
 30
0.0
 70
     8
  0
VERTEX
  5
129
330
3C
100
AcDbEntity
  8
KRABICKA
 62
     9
100
AcDbVertex
100
AcDb2dVertex
 10
904.6720260261716
 20
100.9823530007725
 30
0.0
 70
     8
  0
VERTEX
  5
12A
330
3C
100
AcDbEntity
  8
KRABICKA
 62
     9
100
AcDbVertex
100
AcDb2dVertex
 10
904.6676302671112
 20
99.52431677823739
 30
0.0
 70
     8
  0
VERTEX
  5
12B
330
3C
100
AcDbEntity
  8
KRABICKA
 62
     9
100
AcDbVertex
100
AcDb2dVertex
 10
904.6603832048766
 20
98.15697611562388
 30
0.0
 70
     8
  0
VERTEX
  5
12C
330
3C
100
AcDbEntity
  8
KRABICKA
 62
     9
100
AcDbVertex
100
AcDb2dVertex
 10
904.6495720136743
 20
96.90300490291244
 30
0.0
 70
     8
  0
VERTEX
  5
12D
330
3C
100
AcDbEntity
  8
KRABICKA
 62
     9
100
AcDbVertex
100
AcDb2dVertex
 10
904.6344838677105
 20
95.78507703008355
 30
0.0
 70
     8
  0
VERTEX
  5
12E
330
3C
100
AcDbEntity
  8
KRABICKA
 62
     9
100
AcDbVertex
100
AcDb2dVertex
 10
904.6144059411918
 20
94.82586638711756
 30
0.0
 70
     8
  0
VERTEX
  5
12F
330
3C
100
AcDbEntity
  8
KRABICKA
 62
     9
100
AcDbVertex
100
AcDb2dVertex
 10
904.5887443825264
 20
94.04060716584627
 30
0.0
 70
     8
  0
VERTEX
  5
130
330
3C
100
AcDbEntity
  8
KRABICKA
 62
     9
100
AcDbVertex
100
AcDb2dVertex
 10
904.5573812369303
 20
93.41477476550654
 30
0.0
 70
     8
  0
VERTEX
  5
131
330
3C
100
AcDbEntity
  8
KRABICKA
 62
     9
100
AcDbVertex
100
AcDb2dVertex
 10
904.520317523821
 20
92.92640488718655
 30
0.0
 70
     8
  0
VERTEX
  5
132
330
3C
100
AcDbEntity
  8
KRABICKA
 62
     9
100
AcDbVertex
100
AcDb2dVertex
 10
904.477554262616
 20
92.55353323197454
 30
0.0
 70
     8
  0
VERTEX
  5
133
330
3C
100
AcDbEntity
  8
KRABICKA
 62
     9
100
AcDbVertex
100
AcDb2dVertex
 10
904.4290924727333
 20
92.27419550095872
 30
0.0
 70
     8
  0
VERTEX
  5
134
330
3C
100
AcDbEntity
  8
KRABICKA
 62
     9
100
AcDbVertex
100
AcDb2dVertex
 10
904.3749331735902
 20
92.06642739522726
 30
0.0
 70
     8
  0
VERTEX
  5
135
330
3C
100
AcDbEntity
  8
KRABICKA
 62
     9
100
AcDbVertex
100
AcDb2dVertex
 10
904.3150773846045
 20
91.90826461586841
 30
0.0
 70
     8
  0
VERTEX
  5
136
330
3C
100
AcDbEntity
  8
KRABICKA
 62
     9
100
AcDbVertex
100
AcDb2dVertex
 10
904.2495261251939
 20
91.77774286397033
 30
0.0
 70
     8
  0
VERTEX
  5
137
330
3C
100
AcDbEntity
  8
KRABICKA
 62
     9
100
AcDbVertex
100
AcDb2dVertex
 10
904.1783534706771
 20
91.65651278213914
 30
0.0
 70
     8
  0
VERTEX
  5
138
330
3C
100
AcDbEntity
  8
KRABICKA
 62
     9
100
AcDbVertex
100
AcDb2dVertex
 10
904.1019257199772
 20
91.54068477905255
 30
0.0
 70
     8
  0
VERTEX
  5
139
330
3C
100
AcDbEntity
  8
KRABICKA
 62
     9
100
AcDbVertex
100
AcDb2dVertex
 10
904.0206822279186
 20
91.42998420490608
 30
0.0
 70
     8
  0
VERTEX
  5
13A
330
3C
100
AcDbEntity
  8
KRABICKA
 62
     9
100
AcDbVertex
100
AcDb2dVertex
 10
903.9350623493248
 20
91.32413640989538
 30
0.0
 70
     8
  0
VERTEX
  5
13B
330
3C
100
AcDbEntity
  8
KRABICKA
 62
     9
100
AcDbVertex
100
AcDb2dVertex
 10
903.8455054390208
 20
91.22286674421596
 30
0.0
 70
     8
  0
VERTEX
  5
13C
330
3C
100
AcDbEntity
  8
KRABICKA
 62
     9
100
AcDbVertex
100
AcDb2dVertex
 10
903.7524508518302
 20
91.12590055806345
 30
0.0
 70
     8
  0
VERTEX
  5
13D
330
3C
100
AcDbEntity
  8
KRABICKA
 62
     9
100
AcDbVertex
100
AcDb2dVertex
 10
903.6563379425771
 20
91.03296320163341
 30
0.0
 70
     8
  0
VERTEX
  5
13E
330
3C
100
AcDbEntity
  8
KRABICKA
 62
     9
100
AcDbVertex
100
AcDb2dVertex
 10
903.5576060660861
 20
90.94378002512144
 30
0.0
 70
     8
  0
VERTEX
  5
13F
330
3C
100
AcDbEntity
  8
KRABICKA
 62
     9
100
AcDbVertex
100
AcDb2dVertex
 10
903.4566070532862
 20
90.85809174427504
 30
0.0
 70
     8
  0
VERTEX
  5
140
330
3C
100
AcDbEntity
  8
KRABICKA
 62
     9
100
AcDbVertex
100
AcDb2dVertex
 10
903.3533426395278
 20
90.77570053704944
 30
0.0
 70
     8
  0
VERTEX
  5
141
330
3C
100
AcDbEntity
  8
KRABICKA
 62
     9
100
AcDbVertex
100
AcDb2dVertex
 10
903.2477270362658
 20
90.69642394695177
 30
0.0
 70
     8
  0
VERTEX
  5
142
330
3C
100
AcDbEntity
  8
KRABICKA
 62
     9
100
AcDbVertex
100
AcDb2dVertex
 10
903.1396744549557
 20
90.62007951748928
 30
0.0
 70
     8
  0
VERTEX
  5
143
330
3C
100
AcDbEntity
  8
KRABICKA
 62
     9
100
AcDbVertex
100
AcDb2dVertex
 10
903.0290991070526
 20
90.54648479216906
 30
0.0
 70
     8
  0
VERTEX
  5
144
330
3C
100
AcDbEntity
  8
KRABICKA
 62
     9
100
AcDbVertex
100
AcDb2dVertex
 10
902.9159152040115
 20
90.47545731449833
 30
0.0
 70
     8
  0
VERTEX
  5
145
330
3C
100
AcDbEntity
  8
KRABICKA
 62
     9
100
AcDbVertex
100
AcDb2dVertex
 10
902.8000369572881
 20
90.40681462798421
 30
0.0
 70
     8
  0
VERTEX
  5
146
330
3C
100
AcDbEntity
  8
KRABICKA
 62
     9
100
AcDbVertex
100
AcDb2dVertex
 10
902.6813785783375
 20
90.34037427613387
 30
0.0
 70
     8
  0
VERTEX
  5
147
330
3C
100
AcDbEntity
  8
KRABICKA
 62
     9
100
AcDbVertex
100
AcDb2dVertex
 10
902.5599184732678
 20
90.27601044112378
 30
0.0
 70
     8
  0
VERTEX
  5
148
330
3C
100
AcDbEntity
  8
KRABICKA
 62
     9
100
AcDbVertex
100
AcDb2dVertex
 10
902.4358918267987
 20
90.21382385980757
 30
0.0
 70
     8
  0
VERTEX
  5
149
330
3C
100
AcDbEntity
  8
KRABICKA
 62
     9
100
AcDbVertex
100
AcDb2dVertex
 10
902.3095980183029
 20
90.15397190770807
 30
0.0
 70
     8
  0
VERTEX
  5
14A
330
3C
100
AcDbEntity
  8
KRABICKA
 62
     9
100
AcDbVertex
100
AcDb2dVertex
 10
902.181336427153
 20
90.09661196034821
 30
0.0
 70
     8
  0
VERTEX
  5
14B
330
3C
100
AcDbEntity
  8
KRABICKA
 62
     9
100
AcDbVertex
100
AcDb2dVertex
 10
902.0514064327219
 20
90.04190139325087
 30
0.0
 70
     8
  0
VERTEX
  5
14C
330
3C
100
AcDbEntity
  8
KRABICKA
 62
     9
100
AcDbVertex
100
AcDb2dVertex
 10
901.920107414382
 20
89.98999758193892
 30
0.0
 70
     8
  0
VERTEX
  5
14D
330
3C
100
AcDbEntity
  8
KRABICKA
 62
     9
100
AcDbVertex
100
AcDb2dVertex
 10
901.787738751506
 20
89.94105790193527
 30
0.0
 70
     8
  0
VERTEX
  5
14E
330
3C
100
AcDbEntity
  8
KRABICKA
 62
     9
100
AcDbVertex
100
AcDb2dVertex
 10
901.6545998234667
 20
89.89523972876282
 30
0.0
 70
     8
  0
VERTEX
  5
14F
330
3C
100
AcDbEntity
  8
KRABICKA
 62
     9
100
AcDbVertex
100
AcDb2dVertex
 10
901.5206263479358
 20
89.85261135968448
 30
0.0
 70
     8
  0
VERTEX
  5
150
330
3C
100
AcDbEntity
  8
KRABICKA
 62
     9
100
AcDbVertex
100
AcDb2dVertex
 10
901.3842993957817
 20
89.81288477892352
 30
0.0
 70
     8
  0
VERTEX
  5
151
330
3C
100
AcDbEntity
  8
KRABICKA
 62
     9
100
AcDbVertex
100
AcDb2dVertex
 10
901.2437363761719
 20
89.77568289244311
 30
0.0
 70
     8
  0
VERTEX
  5
152
330
3C
100
AcDbEntity
  8
KRABICKA
 62
     9
100
AcDbVertex
100
AcDb2dVertex
 10
901.0970546982743
 20
89.7406286062066
 30
0.0
 70
     8
  0
VERTEX
  5
153
330
3C
100
AcDbEntity
  8
KRABICKA
 62
     9
100
AcDbVertex
100
AcDb2dVertex
 10
900.9423717712561
 20
89.7073448261772
 30
0.0
 70
     8
  0
VERTEX
  5
154
330
3C
100
AcDbEntity
  8
KRABICKA
 62
     9
100
AcDbVertex
100
AcDb2dVertex
 10
900.7778050042849
 20
89.67545445831822
 30
0.0
 70
     8
  0
VERTEX
  5
155
330
3C
100
AcDbEntity
  8
KRABICKA
 62
     9
100
AcDbVertex
100
AcDb2dVertex
 10
900.6014718065285
 20
89.64458040859287
 30
0.0
 70
     8
  0
VERTEX
  5
156
330
3C
100
AcDbEntity
  8
KRABICKA
 62
     9
100
AcDbVertex
100
AcDb2dVertex
 10
900.4114895871543
 20
89.61434558296446
 30
0.0
 70
     8
  0
VERTEX
  5
157
330
3C
100
AcDbEntity
  8
KRABICKA
 62
     9
100
AcDbVertex
100
AcDb2dVertex
 10
900.2059886597351
 20
89.58440236789718
 30
0.0
 70
     8
  0
VERTEX
  5
158
330
3C
100
AcDbEntity
  8
KRABICKA
 62
     9
100
AcDbVertex
100
AcDb2dVertex
 10
899.983150955464
 20
89.55452107185923
 30
0.0
 70
     8
  0
VERTEX
  5
159
330
3C
100
AcDbEntity
  8
KRABICKA
 62
     9
100
AcDbVertex
100
AcDb2dVertex
 10
899.7411713099394
 20
89.52450148381974
 30
0.0
 70
     8
  0
VERTEX
  5
15A
330
3C
100
AcDbEntity
  8
KRABICKA
 62
     9
100
AcDbVertex
100
AcDb2dVertex
 10
899.4782445587597
 20
89.49414339274779
 30
0.0
 70
     8
  0
VERTEX
  5
15B
330
3C
100
AcDbEntity
  8
KRABICKA
 62
     9
100
AcDbVertex
100
AcDb2dVertex
 10
899.1925655375233
 20
89.46324658761254
 30
0.0
 70
     8
  0
VERTEX
  5
15C
330
3C
100
AcDbEntity
  8
KRABICKA
 62
     9
100
AcDbVertex
100
AcDb2dVertex
 10
898.8823290818286
 20
89.43161085738314
 30
0.0
 70
     8
  0
VERTEX
  5
15D
330
3C
100
AcDbEntity
  8
KRABICKA
 62
     9
100
AcDbVertex
100
AcDb2dVertex
 10
898.5457300272742
 20
89.39903599102867
 30
0.0
 70
     8
  0
VERTEX
  5
15E
330
3C
100
AcDbEntity
  8
KRABICKA
 62
     9
100
AcDbVertex
100
AcDb2dVertex
 10
898.1809632094579
 20
89.36532177751832
 30
0.0
 70
     8
  0
VERTEX
  5
15F
330
3C
100
AcDbEntity
  8
KRABICKA
 62
     9
100
AcDbVertex
100
AcDb2dVertex
 10
897.7874854993556
 20
89.3303913203781
 30
0.0
 70
     8
  0
VERTEX
  5
160
330
3C
100
AcDbEntity
  8
KRABICKA
 62
     9
100
AcDbVertex
100
AcDb2dVertex
 10
897.3698019094495
 20
89.29466098136201
 30
0.0
 70
     8
  0
VERTEX
  5
161
330
3C
100
AcDbEntity
  8
KRABICKA
 62
     9
100
AcDbVertex
100
AcDb2dVertex
 10
896.9336794875987
 20
89.2586704367808
 30
0.0
 70
     8
  0
VERTEX
  5
162
330
3C
100
AcDbEntity
  8
KRABICKA
 62
     9
100
AcDbVertex
100
AcDb2dVertex
 10
896.4848852816629
 20
89.22295936294535
 30
0.0
 70
     8
  0
VERTEX
  5
163
330
3C
100
AcDbEntity
  8
KRABICKA
 62
     9
100
AcDbVertex
100
AcDb2dVertex
 10
896.0291863395013
 20
89.1880674361665
 30
0.0
 70
     8
  0
VERTEX
  5
164
330
3C
100
AcDbEntity
  8
KRABICKA
 62
     9
100
AcDbVertex
100
AcDb2dVertex
 10
895.5723497089733
 20
89.1545343327551
 30
0.0
 70
     8
  0
VERTEX
  5
165
330
3C
100
AcDbEntity
  8
KRABICKA
 62
     9
100
AcDbVertex
100
AcDb2dVertex
 10
895.1201424379386
 20
89.12289972902204
 30
0.0
 70
     8
  0
VERTEX
  5
166
330
3C
100
AcDbEntity
  8
KRABICKA
 62
     9
100
AcDbVertex
100
AcDb2dVertex
 10
894.6783315742559
 20
89.09370330127812
 30
0.0
 70
     8
  0
VERTEX
  5
167
330
3C
100
AcDbEntity
  8
KRABICKA
 62
     9
100
AcDbVertex
100
AcDb2dVertex
 10
894.2507644739089
 20
89.06737054496876
 30
0.0
 70
     8
  0
VERTEX
  5
168
330
3C
100
AcDbEntity
  8
KRABICKA
 62
     9
100
AcDbVertex
100
AcDb2dVertex
 10
893.8336097253777
 20
89.04387023207783
 30
0.0
 70
     8
  0
VERTEX
  5
169
330
3C
100
AcDbEntity
  8
KRABICKA
 62
     9
100
AcDbVertex
100
AcDb2dVertex
 10
893.4211162252667
 20
89.02305695372371
 30
0.0
 70
     8
  0
VERTEX
  5
16A
330
3C
100
AcDbEntity
  8
KRABICKA
 62
     9
100
AcDbVertex
100
AcDb2dVertex
 10
893.0075328701798
 20
89.0047853010248
 30
0.0
 70
     8
  0
VERTEX
  5
16B
330
3C
100
AcDbEntity
  8
KRABICKA
 62
     9
100
AcDbVertex
100
AcDb2dVertex
 10
892.5871085567212
 20
88.98890986509954
 30
0.0
 70
     8
  0
VERTEX
  5
16C
330
3C
100
AcDbEntity
  8
KRABICKA
 62
     9
100
AcDbVertex
100
AcDb2dVertex
 10
892.1540921814953
 20
88.97528523706631
 30
0.0
 70
     8
  0
VERTEX
  5
16D
330
3C
100
AcDbEntity
  8
KRABICKA
 62
     9
100
AcDbVertex
100
AcDb2dVertex
 10
891.7027326411062
 20
88.96376600804353
 30
0.0
 70
     8
  0
VERTEX
  5
16E
330
3C
100
AcDbEntity
  8
KRABICKA
 62
     9
100
AcDbVertex
100
AcDb2dVertex
 10
891.227278832158
 20
88.95420676914957
 30
0.0
 70
     8
  0
VERTEX
  5
16F
330
3C
100
AcDbEntity
  8
KRABICKA
 62
     9
100
AcDbVertex
100
AcDb2dVertex
 10
890.7235599470698
 20
88.94645567477212
 30
0.0
 70
     8
  0
VERTEX
  5
170
330
3C
100
AcDbEntity
  8
KRABICKA
 62
     9
100
AcDbVertex
100
AcDb2dVertex
 10
890.1937263615211
 20
88.94033513237562
 30
0.0
 70
     8
  0
VERTEX
  5
171
330
3C
100
AcDbEntity
  8
KRABICKA
 62
     9
100
AcDbVertex
100
AcDb2dVertex
 10
889.6415087470064
 20
88.93566111269379
 30
0.0
 70
     8
  0
VERTEX
  5
172
330
3C
100
AcDbEntity
  8
KRABICKA
 62
     9
100
AcDbVertex
100
AcDb2dVertex
 10
889.0706377750198
 20
88.93224958646033
 30
0.0
 70
     8
  0
VERTEX
  5
173
330
3C
100
AcDbEntity
  8
KRABICKA
 62
     9
100
AcDbVertex
100
AcDb2dVertex
 10
888.4848441170557
 20
88.92991652440898
 30
0.0
 70
     8
  0
VERTEX
  5
174
330
3C
100
AcDbEntity
  8
KRABICKA
 62
     9
100
AcDbVertex
100
AcDb2dVertex
 10
887.8878584446086
 20
88.92847789727341
 30
0.0
 70
     8
  0
VERTEX
  5
175
330
3C
100
AcDbEntity
  8
KRABICKA
 62
     9
100
AcDbVertex
100
AcDb2dVertex
 10
887.2834114291727
 20
88.92774967578736
 30
0.0
 70
     8
  0
VERTEX
  5
176
330
3C
100
AcDbEntity
  8
KRABICKA
 62
     9
100
AcDbVertex
100
AcDb2dVertex
 10
886.6752337422425
 20
88.92754783068452
 30
0.0
 70
     8
  0
VERTEX
  5
177
330
3C
100
AcDbEntity
  8
KRABICKA
 62
     9
100
AcDbVertex
100
AcDb2dVertex
 10
886.0670560553124
 20
88.92774967578736
 30
0.0
 70
     8
  0
VERTEX
  5
178
330
3C
100
AcDbEntity
  8
KRABICKA
 62
     9
100
AcDbVertex
100
AcDb2dVertex
 10
885.4626090398765
 20
88.92847789727341
 30
0.0
 70
     8
  0
VERTEX
  5
179
330
3C
100
AcDbEntity
  8
KRABICKA
 62
     9
100
AcDbVertex
100
AcDb2dVertex
 10
884.8656233674294
 20
88.92991652440898
 30
0.0
 70
     8
  0
VERTEX
  5
17A
330
3C
100
AcDbEntity
  8
KRABICKA
 62
     9
100
AcDbVertex
100
AcDb2dVertex
 10
884.2798297094654
 20
88.93224958646033
 30
0.0
 70
     8
  0
VERTEX
  5
17B
330
3C
100
AcDbEntity
  8
KRABICKA
 62
     9
100
AcDbVertex
100
AcDb2dVertex
 10
883.7089587374787
 20
88.93566111269377
 30
0.0
 70
     8
  0
VERTEX
  5
17C
330
3C
100
AcDbEntity
  8
KRABICKA
 62
     9
100
AcDbVertex
100
AcDb2dVertex
 10
883.156741122964
 20
88.94033513237559
 30
0.0
 70
     8
  0
VERTEX
  5
17D
330
3C
100
AcDbEntity
  8
KRABICKA
 62
     9
100
AcDbVertex
100
AcDb2dVertex
 10
882.6269075374154
 20
88.9464556747721
 30
0.0
 70
     8
  0
VERTEX
  5
17E
330
3C
100
AcDbEntity
  8
KRABICKA
 62
     9
100
AcDbVertex
100
AcDb2dVertex
 10
881.8048380181419
 20
88.93485123584552
 30
0.0
 70
    16
  0
VERTEX
  5
17F
330
3C
100
AcDbEntity
  8
KRABICKA
 62
     9
100
AcDbVertex
100
AcDb2dVertex
 10
878.8445460991535
 20
89.06193954341146
 30
0.0
 70
    16
  0
VERTEX
  5
180
330
3C
100
AcDbEntity
  8
KRABICKA
 62
     9
100
AcDbVertex
100
AcDb2dVertex
 10
874.84979304662
 20
89.3796103981773
 30
0.0
 70
    16
  0
VERTEX
  5
181
330
3C
100
AcDbEntity
  8
KRABICKA
 62
     9
100
AcDbVertex
100
AcDb2dVertex
 10
872.7733073645284
 20
89.61154952898917
 30
0.0
 70
    16
  0
VERTEX
  5
182
330
3C
100
AcDbEntity
  8
KRABICKA
 62
     9
100
AcDbVertex
100
AcDb2dVertex
 10
871.6908448792507
 20
89.86026498365268
 30
0.0
 70
    16
  0
VERTEX
  5
183
330
3C
100
AcDbEntity
  8
KRABICKA
 62
     9
100
AcDbVertex
100
AcDb2dVertex
 10
870.6385190845795
 20
90.318828908977
 30
0.0
 70
    16
  0
VERTEX
  5
184
330
3C
100
AcDbEntity
  8
KRABICKA
 62
     9
100
AcDbVertex
100
AcDb2dVertex
 10
869.7696122193168
 20
90.90666503724264
 30
0.0
 70
    16
  0
VERTEX
  5
185
330
3C
100
AcDbEntity
  8
KRABICKA
 62
     9
100
AcDbVertex
100
AcDb2dVertex
 10
869.0402005485468
 20
91.71719109278106
 30
0.0
 70
    16
  0
VERTEX
  5
186
330
3C
100
AcDbEntity
  8
KRABICKA
 62
     9
100
AcDbVertex
100
AcDb2dVertex
 10
868.6752337422424
 20
92.89102777545508
 30
0.0
 70
    16
  0
VERTEX
  5
187
330
3C
100
AcDbEntity
  8
KRABICKA
 62
     9
100
AcDbVertex
100
AcDb2dVertex
 10
868.6752337422426
 20
105.673896128104
 30
0.0
 70
    16
  0
VERTEX
  5
188
330
3C
100
AcDbEntity
  8
KRABICKA
 62
     9
100
AcDbVertex
100
AcDb2dVertex
 10
868.6752337422424
 20
118.456764480753
 30
0.0
 70
    16
  0
VERTEX
  5
189
330
3C
100
AcDbEntity
  8
KRABICKA
 62
     9
100
AcDbVertex
100
AcDb2dVertex
 10
869.0402005485468
 20
119.630601163427
 30
0.0
 70
    16
  0
VERTEX
  5
18A
330
3C
100
AcDbEntity
  8
KRABICKA
 62
     9
100
AcDbVertex
100
AcDb2dVertex
 10
869.7696122193168
 20
120.4411272189654
 30
0.0
 70
    16
  0
VERTEX
  5
18B
330
3C
100
AcDbEntity
  8
KRABICKA
 62
     9
100
AcDbVertex
100
AcDb2dVertex
 10
870.6385190845795
 20
121.0289633472311
 30
0.0
 70
    16
  0
VERTEX
  5
18C
330
3C
100
AcDbEntity
  8
KRABICKA
 62
     9
100
AcDbVertex
100
AcDb2dVertex
 10
871.6908448792507
 20
121.4875272725554
 30
0.0
 70
    16
  0
VERTEX
  5
18D
330
3C
100
AcDbEntity
  8
KRABICKA
 62
     9
100
AcDbVertex
100
AcDb2dVertex
 10
872.7733073645284
 20
121.7362427272189
 30
0.0
 70
    16
  0
VERTEX
  5
18E
330
3C
100
AcDbEntity
  8
KRABICKA
 62
     9
100
AcDbVertex
100
AcDb2dVertex
 10
874.84979304662
 20
121.9681818580308
 30
0.0
 70
    16
  0
VERTEX
  5
18F
330
3C
100
AcDbEntity
  8
KRABICKA
 62
     9
100
AcDbVertex
100
AcDb2dVertex
 10
878.8445460991535
 20
122.2858527127966
 30
0.0
 70
    16
  0
VERTEX
  5
190
330
3C
100
AcDbEntity
  8
KRABICKA
 62
     9
100
AcDbVertex
100
AcDb2dVertex
 10
881.8048380181419
 20
122.4129410203626
 30
0.0
 70
    16
  0
VERTEX
  5
191
330
3C
100
AcDbEntity
  8
KRABICKA
 62
     9
100
AcDbVertex
100
AcDb2dVertex
 10
886.6752337422425
 20
122.423896128104
 30
0.0
 70
    16
  0
VERTEX
  5
192
330
3C
100
AcDbEntity
  8
KRABICKA
 62
     9
100
AcDbVertex
100
AcDb2dVertex
 10
891.5456294663432
 20
122.4129410203626
 30
0.0
 70
    16
  0
VERTEX
  5
193
330
3C
100
AcDbEntity
  8
KRABICKA
 62
     9
100
AcDbVertex
100
AcDb2dVertex
 10
894.5059213853317
 20
122.2858527127966
 30
0.0
 70
    16
  0
VERTEX
  5
194
330
3C
100
AcDbEntity
  8
KRABICKA
 62
     9
100
AcDbVertex
100
AcDb2dVertex
 10
898.5006744378649
 20
121.9681818580308
 30
0.0
 70
    16
  0
VERTEX
  5
195
330
3C
100
AcDbEntity
  8
KRABICKA
 62
     9
100
AcDbVertex
100
AcDb2dVertex
 10
900.5771601199567
 20
121.7362427272189
 30
0.0
 70
    16
  0
VERTEX
  5
196
330
3C
100
AcDbEntity
  8
KRABICKA
 62
     9
100
AcDbVertex
100
AcDb2dVertex
 10
901.6596226052344
 20
121.4875272725554
 30
0.0
 70
    16
  0
VERTEX
  5
197
330
3C
100
AcDbEntity
  8
KRABICKA
 62
     9
100
AcDbVertex
100
AcDb2dVertex
 10
902.7119483999056
 20
121.0289633472311
 30
0.0
 70
    16
  0
VERTEX
  5
198
330
3C
100
AcDbEntity
  8
KRABICKA
 62
     9
100
AcDbVertex
100
AcDb2dVertex
 10
903.5808552651683
 20
120.4411272189654
 30
0.0
 70
    16
  0
VERTEX
  5
199
330
3C
100
AcDbEntity
  8
KRABICKA
 62
     9
100
AcDbVertex
100
AcDb2dVertex
 10
904.3102669359383
 20
119.630601163427
 30
0.0
 70
    16
  0
VERTEX
  5
19A
330
3C
100
AcDbEntity
  8
KRABICKA
 62
     9
100
AcDbVertex
100
AcDb2dVertex
 10
904.6752337422427
 20
118.456764480753
 30
0.0
 70
    16
  0
VERTEX
  5
19B
330
3C
100
AcDbEntity
  8
KRABICKA
 62
     9
100
AcDbVertex
100
AcDb2dVertex
 10
904.6752337422425
 20
105.673896128104
 30
0.0
 70
    16
  0
VERTEX
  5
19C
330
3C
100
AcDbEntity
  8
KRABICKA
 62
     9
100
AcDbVertex
100
AcDb2dVertex
 10
904.6752337422427
 20
92.89102777545508
 30
0.0
 70
    16
  0
VERTEX
  5
19D
330
3C
100
AcDbEntity
  8
KRABICKA
 62
     9
100
AcDbVertex
100
AcDb2dVertex
 10
904.3102669359383
 20
91.71719109278106
 30
0.0
 70
    16
  0
VERTEX
  5
19E
330
3C
100
AcDbEntity
  8
KRABICKA
 62
     9
100
AcDbVertex
100
AcDb2dVertex
 10
903.5808552651683
 20
90.90666503724264
 30
0.0
 70
    16
  0
VERTEX
  5
19F
330
3C
100
AcDbEntity
  8
KRABICKA
 62
     9
100
AcDbVertex
100
AcDb2dVertex
 10
902.7119483999056
 20
90.318828908977
 30
0.0
 70
    16
  0
VERTEX
  5
1A0
330
3C
100
AcDbEntity
  8
KRABICKA
 62
     9
100
AcDbVertex
100
AcDb2dVertex
 10
901.6596226052344
 20
89.86026498365268
 30
0.0
 70
    16
  0
VERTEX
  5
1A1
330
3C
100
AcDbEntity
  8
KRABICKA
 62
     9
100
AcDbVertex
100
AcDb2dVertex
 10
900.5771601199567
 20
89.61154952898917
 30
0.0
 70
    16
  0
VERTEX
  5
1A2
330
3C
100
AcDbEntity
  8
KRABICKA
 62
     9
100
AcDbVertex
100
AcDb2dVertex
 10
898.5006744378649
 20
89.3796103981773
 30
0.0
 70
    16
  0
VERTEX
  5
1A3
330
3C
100
AcDbEntity
  8
KRABICKA
 62
     9
100
AcDbVertex
100
AcDb2dVertex
 10
894.5059213853317
 20
89.06193954341146
 30
0.0
 70
    16
  0
VERTEX
  5
1A4
330
3C
100
AcDbEntity
  8
KRABICKA
 62
     9
100
AcDbVertex
100
AcDb2dVertex
 10
891.5456294663432
 20
88.93485123584552
 30
0.0
 70
    16
  0
SEQEND
  5
1A5
330
3C
100
AcDbEntity
  8
KRABICKA
 62
     9
  0
LINE
  5
239
330
2
100
AcDbEntity
  8
SVORKY
  6
Continuous
100
AcDbLine
 10
886.6752337422425
 20
134.9238961281041
 30
0.0
 11
891.6752337422424
 21
134.9238961281041
 31
0.0
  0
LINE
  5
23A
330
2
100
AcDbEntity
  8
SVORKY
  6
Continuous
100
AcDbLine
 10
886.6752337422425
 20
130.1738961281041
 30
0.0
 11
891.6752337422424
 21
130.1738961281041
 31
0.0
  0
LINE
  5
23B
330
2
100
AcDbEntity
  8
SVORKY
  6
Continuous
100
AcDbLine
 10
886.6752337422425
 20
132.673896128104
 30
0.0
 11
891.6752337422424
 21
132.673896128104
 31
0.0
  0
TEXT
  5
23C
330
2
100
AcDbEntity
  8
POPIS_SVOREK
 62
     7
100
AcDbText
 10
889.4884111117571
 20
133.3964417962602
 30
0.0
 40
0.65
  1
~
 50
180.0
  7
COMIC
 72
     1
 11
889.2192636151401
 21
133.3964417962602
 31
0.0
100
AcDbText
  0
TEXT
  5
23D
330
2
100
AcDbEntity
  8
POPIS_SVOREK
 62
     7
100
AcDbText
 10
889.4490504892942
 20
133.805959134513
 30
0.0
 40
0.65
  1
=
 50
180.0
  7
COMIC
 72
     1
 11
889.2192636151401
 21
133.805959134513
 31
0.0
100
AcDbText
  0
LWPOLYLINE
  5
23E
330
2
100
AcDbEntity
  8
SVORKY
  6
Continuous
100
AcDbPolyline
 90
        4
 70
     1
 43
0.0
 10
886.6752337422425
 20
126.9238961281041
 10
891.6752337422424
 20
126.9238961281041
 10
891.6752337422424
 20
135.1738961281041
 10
886.6752337422425
 20
135.1738961281041
  0
CIRCLE
  5
24D
330
2
100
AcDbEntity
  8
SVORKY
 62
     7
100
AcDbCircle
 10
887.9252337422425
 20
131.4238961281041
 30
0.0
 40
0.875
  0
LINE
  5
24E
330
2
100
AcDbEntity
  8
SVORKY
 62
     7
100
AcDbLine
 10
888.1268885833291
 20
130.5724501103601
 30
0.0
 11
887.2902430766565
 21
132.0259026558368
 31
0.0
  0
LINE
  5
24F
330
2
100
AcDbEntity
  8
SVORKY
 62
     7
100
AcDbLine
 10
888.5602244065443
 20
130.8218896077104
 30
0.0
 11
887.7235789005139
 21
132.2753421495175
 31
0.0
  0
LINE
  5
250
330
2
100
AcDbEntity
  8
SVORKY
  6
Continuous
100
AcDbLine
 10
886.6752337422425
 20
130.1738961281041
 30
0.0
 11
887.1752337422424
 21
130.1738961281041
 31
0.0
  0
TEXT
  5
251
330
2
100
AcDbEntity
  8
POPIS_SVOREK
 62
     7
100
AcDbText
 10
888.1072382432947
 20
134.4305812931141
 30
0.0
 40
0.65
  1
1
 50
180.0
  7
COMIC
 72
     1
 11
887.9044980538495
 21
134.4305812931141
 31
0.0
100
AcDbText
  0
CIRCLE
  5
252
330
2
100
AcDbEntity
  8
SVORKY
  6
Continuous
100
AcDbCircle
 10
887.9252337422425
 20
128.6738961281041
 30
0.0
 40
0.6499999999999986
  0
CIRCLE
  5
253
330
2
100
AcDbEntity
  8
SVORKY
  6
Continuous
100
AcDbCircle
 10
887.9252337422425
 20
128.6738961281041
 30
0.0
 40
0.375
  0
LINE
  5
254
330
2
100
AcDbEntity
  8
SVORKY
  6
Continuous
100
AcDbLine
 10
886.6752337422425
 20
129.6738961281041
 30
0.0
 11
887.1752337422424
 21
129.6738961281041
 31
0.0
  0
LINE
  5
255
330
2
100
AcDbEntity
  8
SVORKY
  6
Continuous
100
AcDbLine
 10
887.1752337422424
 20
130.1738961281041
 30
0.0
 11
887.1752337422424
 21
126.9238961281041
 31
0.0
  0
CIRCLE
  5
256
330
2
100
AcDbEntity
  8
SVORKY
 62
     7
100
AcDbCircle
 10
882.9252337422426
 20
131.4238961281041
 30
0.0
 40
0.875
  0
LINE
  5
257
330
2
100
AcDbEntity
  8
SVORKY
 62
     7
100
AcDbLine
 10
882.9771031979674
 20
132.2973573783198
 30
0.0
 11
882.4035179782862
 21
130.7214449437121
 31
0.0
  0
LINE
  5
258
330
2
100
AcDbEntity
  8
SVORKY
 62
     7
100
AcDbLine
 10
883.4469495061988
 20
132.1263473050455
 30
0.0
 11
882.8733642865175
 21
130.550434874163
 31
0.0
  0
LINE
  5
259
330
2
100
AcDbEntity
  8
SVORKY
 62
     7
100
AcDbLine
 10
884.5505755548494
 20
131.3994410408663
 30
0.0
 11
886.1704824127128
 21
130.9653883048595
 31
0.0
  0
LINE
  5
25A
330
2
100
AcDbEntity
  8
SVORKY
  6
Continuous
100
AcDbLine
 10
881.4252337422425
 20
130.9238961281041
 30
0.0
 11
881.6752337422425
 21
130.9238961281041
 31
0.0
  0
LINE
  5
25B
330
2
100
AcDbEntity
  8
SVORKY
  6
Continuous
100
AcDbLine
 10
881.6752337422425
 20
130.1738961281041
 30
0.0
 11
882.1752337422426
 21
130.1738961281041
 31
0.0
  0
TEXT
  5
25C
330
2
100
AcDbEntity
  8
POPIS_SVOREK
 62
     7
100
AcDbText
 10
882.6885417840264
 20
134.518591258271
 30
0.0
 40
0.65
  1
K1-
 50
270.0
  7
COMIC
 72
     1
 11
882.6885417840264
 21
133.8531988360788
 31
0.0
100
AcDbText
  0
CIRCLE
  5
25D
330
2
100
AcDbEntity
  8
SVORKY
  6
Continuous
100
AcDbCircle
 10
885.4252337422424
 20
128.6738961281041
 30
0.0
 40
0.6499999999999986
  0
CIRCLE
  5
25E
330
2
100
AcDbEntity
  8
SVORKY
  6
Continuous
100
AcDbCircle
 10
882.9252337422426
 20
128.6738961281041
 30
0.0
 40
0.6499999999999986
  0
CIRCLE
  5
25F
330
2
100
AcDbEntity
  8
SVORKY
  6
Continuous
100
AcDbCircle
 10
882.9252337422426
 20
128.6738961281041
 30
0.0
 40
0.375
  0
LINE
  5
260
330
2
100
AcDbEntity
  8
SVORKY
  6
Continuous
100
AcDbLine
 10
881.6752337422425
 20
126.9238961281041
 30
0.0
 11
881.4252337422425
 21
126.9238961281041
 31
0.0
  0
LINE
  5
261
330
2
100
AcDbEntity
  8
SVORKY
  6
Continuous
100
AcDbLine
 10
881.6752337422425
 20
129.6738961281041
 30
0.0
 11
882.1752337422426
 21
129.6738961281041
 31
0.0
  0
CIRCLE
  5
262
330
2
100
AcDbEntity
  8
SVORKY
  6
Continuous
100
AcDbCircle
 10
885.4252337422424
 20
128.6738961281041
 30
0.0
 40
0.375
  0
LINE
  5
263
330
2
100
AcDbEntity
  8
SVORKY
  6
Continuous
100
AcDbLine
 10
882.1752337422426
 20
130.1738961281041
 30
0.0
 11
882.1752337422426
 21
126.9238961281041
 31
0.0
  0
LINE
  5
264
330
2
100
AcDbEntity
  8
SVORKY
  6
Continuous
100
AcDbLine
 10
881.4252337422425
 20
126.9238961281041
 30
0.0
 11
881.4252337422425
 21
130.9238961281041
 31
0.0
  0
LINE
  5
265
330
2
100
AcDbEntity
  8
SVORKY
  6
Continuous
100
AcDbLine
 10
886.1752337422425
 20
126.9238961281041
 30
0.0
 11
886.1752337422425
 21
130.1738961281041
 31
0.0
  0
CIRCLE
  5
266
330
2
100
AcDbEntity
  8
SVORKY
 62
     7
100
AcDbCircle
 10
885.4252337422424
 20
131.4238961281041
 30
0.0
 40
0.875
  0
LINE
  5
267
330
2
100
AcDbEntity
  8
SVORKY
 62
     7
100
AcDbLine
 10
884.6799850791944
 20
131.8824039519979
 30
0.0
 11
886.2998919333467
 21
131.4483512156665
 31
0.0
  0
LWPOLYLINE
  5
268
330
2
100
AcDbEntity
  8
SVORKY
  6
Continuous
100
AcDbPolyline
 90
        4
 70
     1
 43
0.0
 10
881.6752337422425
 20
126.9238961281041
 10
886.6752337422425
 20
126.9238961281041
 10
886.6752337422425
 20
135.1738961281041
 10
881.6752337422425
 20
135.1738961281041
  0
LINE
  5
269
330
2
100
AcDbEntity
  8
SVORKY
  6
Continuous
100
AcDbLine
 10
881.6752337422425
 20
130.1738961281041
 30
0.0
 11
886.6752337422425
 21
130.1738961281041
 31
0.0
  0
LINE
  5
26A
330
2
100
AcDbEntity
  8
SVORKY
  6
Continuous
100
AcDbLine
 10
886.1752337422425
 20
129.6738961281041
 30
0.0
 11
886.6752337422425
 21
129.6738961281041
 31
0.0
  0
LINE
  5
26B
330
2
100
AcDbEntity
  8
SVORKY
  6
Continuous
100
AcDbLine
 10
881.6752337422425
 20
134.9238961281041
 30
0.0
 11
886.6752337422425
 21
134.9238961281041
 31
0.0
  0
LINE
  5
26C
330
2
100
AcDbEntity
  8
SVORKY
  6
Continuous
100
AcDbLine
 10
881.6752337422425
 20
132.673896128104
 30
0.0
 11
886.6752337422425
 21
132.673896128104
 31
0.0
  0
TEXT
  5
26D
330
2
100
AcDbEntity
  8
POPIS_SVOREK
 62
     7
100
AcDbText
 10
885.1885417840263
 20
134.5473970769448
 30
0.0
 40
0.65
  1
K1+
 50
270.0
  7
COMIC
 72
     1
 11
885.1885417840263
 21
133.8531988360788
 31
0.0
100
AcDbText
  0
CIRCLE
  5
2A1
330
2
100
AcDbEntity
  8
SVORKY
 62
     7
100
AcDbCircle
 10
890.4252337422425
 20
131.4238961281041
 30
0.0
 40
0.875
  0
LINE
  5
2A2
330
2
100
AcDbEntity
  8
SVORKY
 62
     7
100
AcDbLine
 10
890.7473583159832
 20
130.6103478781164
 30
0.0
 11
890.601206856453
 21
132.281018329362
 31
0.0
  0
LINE
  5
2A3
330
2
100
AcDbEntity
  8
SVORKY
 62
     7
100
AcDbLine
 10
890.2492606248834
 20
130.5667739335986
 30
0.0
 11
890.1031091669274
 21
132.237444381468
 31
0.0
  0
TEXT
  5
2A4
330
2
100
AcDbEntity
  8
POPIS_SVOREK
 62
     7
100
AcDbText
 10
890.6793627358521
 20
134.4305812931141
 30
0.0
 40
0.65
  1
2
 50
180.0
  7
COMIC
 72
     1
 11
890.4044980538495
 21
134.4305812931141
 31
0.0
100
AcDbText
  0
CIRCLE
  5
2A5
330
2
100
AcDbEntity
  8
SVORKY
  6
Continuous
100
AcDbCircle
 10
890.4252337422425
 20
128.6738961281041
 30
0.0
 40
0.375
  0
CIRCLE
  5
2A6
330
2
100
AcDbEntity
  8
SVORKY
  6
Continuous
100
AcDbCircle
 10
890.4252337422425
 20
128.6738961281041
 30
0.0
 40
0.6499999999999986
  0
LINE
  5
2A7
330
2
100
AcDbEntity
  8
SVORKY
  6
Continuous
100
AcDbLine
 10
891.1752337422425
 20
129.6738961281041
 30
0.0
 11
891.6752337422424
 21
129.6738961281041
 31
0.0
  0
LINE
  5
2A8
330
2
100
AcDbEntity
  8
SVORKY
  6
Continuous
100
AcDbLine
 10
891.1752337422425
 20
126.9238961281041
 30
0.0
 11
891.1752337422425
 21
130.1738961281041
 31
0.0
  0
LWPOLYLINE
  5
2B1
330
2
100
AcDbEntity
  8
KRABICKA
100
AcDbPolyline
 90
        8
 70
     1
 43
0.0
 10
885.3674689014148
 20
90.40928856632991
 10
887.9829985830697
 20
90.40928856632991
 42
0.4142135623731892
 10
888.2829985830698
 20
90.70928856633001
 10
888.2829985830698
 20
90.76311548217832
 42
0.4142135623730951
 10
887.9829985830697
 20
91.06311548217831
 10
885.3674689014148
 20
91.06311548217831
 42
0.4142135623730951
 10
885.0674689014148
 20
90.76311548217832
 10
885.067468901415
 20
90.7092885663299
 42
0.4142135623730951
  0
ENDSEC
  0
SECTION
  2
OBJECTS
  0
DICTIONARY
  5
7
330
0
100
AcDbDictionary
281
     1
  3
ACAD_GROUP
350
1F
  3
ACAD_LAYOUT
350
B
  3
ACAD_MLINESTYLE
350
20
  3
ACAD_PLOTSETTINGS
350
21
  3
ACAD_PLOTSTYLENAME
350
6
  0
DICTIONARY
  5
1F
102
{ACAD_REACTORS
330
7
102
}
330
7
100
AcDbDictionary
281
     1
  0
DICTIONARY
  5
B
102
{ACAD_REACTORS
330
7
102
}
330
7
100
AcDbDictionary
281
     1
  3
Layout2
350
F
  3
Model
350
A
  0
DICTIONARY
  5
20
102
{ACAD_REACTORS
330
7
102
}
330
7
100
AcDbDictionary
281
     1
  3
Standard
350
22
  0
DICTIONARY
  5
21
102
{ACAD_REACTORS
330
7
102
}
330
7
100
AcDbDictionary
281
     1
  0
ACDBDICTIONARYWDFLT
  5
6
102
{ACAD_REACTORS
330
7
102
}
330
7
100
AcDbDictionary
281
     1
  3
Normal
350
5
100
AcDbDictionaryWithDefault
340
5
  0
LAYOUT
  5
F
102
{ACAD_REACTORS
330
B
102
}
330
B
100
AcDbPlotSettings
  1

  2
Minolta PagePro 20
  4
A4
  6

 40
7.651750087738037
 41
4.603739261627197
 42
4.646087646484375
 43
4.603759765625
 44
210.0579986572265
 45
296.9259948730469
 46
0.0
 47
0.0
 48
0.0
 49
0.0
140
0.0
141
0.0
142
1.0
143
1.0
 70
   688
 72
     1
 73
     1
 74
     5
  7
pera čb.ctb
 75
    16
147
1.0
148
0.0
149
0.0
100
AcDbLayout
  1
Layout2
 70
     1
 71
     1
 10
-4.603759765625
 20
-7.651750087738037
 11
292.3222351074219
 21
202.4062485694885
 12
0.0
 22
0.0
 32
0.0
 14
28.77184958457945
 24
19.7760160923004
 34
0.0
 15
258.9466462612152
 25
177.9841448307037
 35
0.0
146
0.0
 13
0.0
 23
0.0
 33
0.0
 16
1.0
 26
0.0
 36
0.0
 17
0.0
 27
1.0
 37
0.0
 76
     0
330
C
  0
LAYOUT
  5
A
102
{ACAD_REACTORS
330
B
102
}
330
B
100
AcDbPlotSettings
  1

  2
Minolta PagePro 20
  4

  6

 40
0.0
 41
0.0
 42
0.0
 43
0.0
 44
0.0
 45
0.0
 46
0.0
 47
0.0
 48
0.0
 49
0.0
140
0.0
141
0.0
142
1.0
143
1.0
 70
  1712
 72
     0
 73
     0
 74
     0
  7
pera čb.ctb
 75
     0
147
1.0
148
0.0
149
0.0
100
AcDbLayout
  1
Model
 70
     1
 71
     0
 10
0.0
 20
0.0
 11
12.0
 21
9.0
 12
0.0
 22
0.0
 32
0.0
 14
0.0
 24
0.0
 34
0.0
 15
0.0
 25
0.0
 35
0.0
146
0.0
 13
0.0
 23
0.0
 33
0.0
 16
1.0
 26
0.0
 36
0.0
 17
0.0
 27
1.0
 37
0.0
 76
     0
330
2
  0
MLINESTYLE
  5
22
102
{ACAD_REACTORS
330
20
102
}
330
20
100
AcDbMlineStyle
  2
STANDARD
 70
     0
  3

 62
   256
 51
90.0
 52
90.0
 71
     2
 49
0.5
 62
   256
  6
BYLAYER
 49
-0.5
 62
   256
  6
BYLAYER
  0
ACDBPLACEHOLDER
  5
5
102
{ACAD_REACTORS
330
6
102
}
330
6
  0
ENDSEC
  0
EOF
