  0
SECTION
  2
HEADER
  9
$ACADVER
  1
AC1015
  9
$ACADMAINTVER
 70
    10
  9
$DWGCODEPAGE
  3
ANSI_1250
  9
$INSBASE
 10
882.2464226056094
 20
146.1378045387
 30
0.0
  9
$EXTMIN
 10
865.796561674483
 20
75.92389612810407
 30
0.0
  9
$EXTMAX
 10
907.5539058100018
 20
135.1738961281041
 30
0.0
  9
$LIMMIN
 10
0.0
 20
0.0
  9
$LIMMAX
 10
420.0
 20
297.0
  9
$ORTHOMODE
 70
     1
  9
$REGENMODE
 70
     1
  9
$FILLMODE
 70
     1
  9
$QTEXTMODE
 70
     0
  9
$MIRRTEXT
 70
     1
  9
$LTSCALE
 40
1.0
  9
$ATTMODE
 70
     1
  9
$TEXTSIZE
 40
20.0
  9
$TRACEWID
 40
1.0
  9
$TEXTSTYLE
  7
Standard
  9
$CLAYER
  8
0
  9
$CELTYPE
  6
ByLayer
  9
$CECOLOR
 62
   256
  9
$CELTSCALE
 40
1.0
  9
$DISPSILH
 70
     0
  9
$DIMSCALE
 40
1.0
  9
$DIMASZ
 40
2.5
  9
$DIMEXO
 40
0.625
  9
$DIMDLI
 40
3.75
  9
$DIMRND
 40
0.0
  9
$DIMDLE
 40
0.0
  9
$DIMEXE
 40
1.25
  9
$DIMTP
 40
0.0
  9
$DIMTM
 40
0.0
  9
$DIMTXT
 40
2.5
  9
$DIMCEN
 40
2.5
  9
$DIMTSZ
 40
0.0
  9
$DIMTOL
 70
     0
  9
$DIMLIM
 70
     0
  9
$DIMTIH
 70
     0
  9
$DIMTOH
 70
     0
  9
$DIMSE1
 70
     0
  9
$DIMSE2
 70
     0
  9
$DIMTAD
 70
     1
  9
$DIMZIN
 70
     8
  9
$DIMBLK
  1

  9
$DIMASO
 70
     1
  9
$DIMSHO
 70
     1
  9
$DIMPOST
  1

  9
$DIMAPOST
  1

  9
$DIMALT
 70
     0
  9
$DIMALTD
 70
     3
  9
$DIMALTF
 40
0.03937007874016
  9
$DIMLFAC
 40
1.0
  9
$DIMTOFL
 70
     1
  9
$DIMTVP
 40
0.0
  9
$DIMTIX
 70
     0
  9
$DIMSOXD
 70
     0
  9
$DIMSAH
 70
     0
  9
$DIMBLK1
  1

  9
$DIMBLK2
  1

  9
$DIMSTYLE
  2
ISO-25
  9
$DIMCLRD
 70
     0
  9
$DIMCLRE
 70
     0
  9
$DIMCLRT
 70
     0
  9
$DIMTFAC
 40
1.0
  9
$DIMGAP
 40
0.625
  9
$DIMJUST
 70
     0
  9
$DIMSD1
 70
     0
  9
$DIMSD2
 70
     0
  9
$DIMTOLJ
 70
     0
  9
$DIMTZIN
 70
     8
  9
$DIMALTZ
 70
     0
  9
$DIMALTTZ
 70
     0
  9
$DIMUPT
 70
     0
  9
$DIMDEC
 70
     2
  9
$DIMTDEC
 70
     2
  9
$DIMALTU
 70
     2
  9
$DIMALTTD
 70
     3
  9
$DIMTXSTY
  7
Standard
  9
$DIMAUNIT
 70
     0
  9
$DIMADEC
 70
     0
  9
$DIMALTRND
 40
0.0
  9
$DIMAZIN
 70
     0
  9
$DIMDSEP
 70
    44
  9
$DIMATFIT
 70
     3
  9
$DIMFRAC
 70
     0
  9
$DIMLDRBLK
  1

  9
$DIMLUNIT
 70
     2
  9
$DIMLWD
 70
    -2
  9
$DIMLWE
 70
    -2
  9
$DIMTMOVE
 70
     0
  9
$LUNITS
 70
     2
  9
$LUPREC
 70
     4
  9
$SKETCHINC
 40
1.0
  9
$FILLETRAD
 40
10.0
  9
$AUNITS
 70
     0
  9
$AUPREC
 70
     0
  9
$MENU
  1
.
  9
$ELEVATION
 40
0.0
  9
$PELEVATION
 40
0.0
  9
$THICKNESS
 40
0.0
  9
$LIMCHECK
 70
     0
  9
$CHAMFERA
 40
10.0
  9
$CHAMFERB
 40
10.0
  9
$CHAMFERC
 40
20.0
  9
$CHAMFERD
 40
0.0
  9
$SKPOLY
 70
     0
  9
$TDCREATE
 40
2451634.349446296
  9
$TDUCREATE
 40
2451634.307779630
  9
$TDUPDATE
 40
2454553.617619895
  9
$TDUUPDATE
 40
2454553.575953229
  9
$TDINDWG
 40
0.0620560532
  9
$TDUSRTIMER
 40
0.0620559375
  9
$USRTIMER
 70
     1
  9
$ANGBASE
 50
0.0
  9
$ANGDIR
 70
     0
  9
$PDMODE
 70
     0
  9
$PDSIZE
 40
0.0
  9
$PLINEWID
 40
0.0
  9
$SPLFRAME
 70
     0
  9
$SPLINETYPE
 70
     6
  9
$SPLINESEGS
 70
     8
  9
$HANDSEED
  5
2B8
  9
$SURFTAB1
 70
     6
  9
$SURFTAB2
 70
     6
  9
$SURFTYPE
 70
     6
  9
$SURFU
 70
     6
  9
$SURFV
 70
     6
  9
$UCSBASE
  2

  9
$UCSNAME
  2

  9
$UCSORG
 10
0.0
 20
0.0
 30
0.0
  9
$UCSXDIR
 10
1.0
 20
0.0
 30
0.0
  9
$UCSYDIR
 10
0.0
 20
1.0
 30
0.0
  9
$UCSORTHOREF
  2

  9
$UCSORTHOVIEW
 70
     0
  9
$UCSORGTOP
 10
0.0
 20
0.0
 30
0.0
  9
$UCSORGBOTTOM
 10
0.0
 20
0.0
 30
0.0
  9
$UCSORGLEFT
 10
0.0
 20
0.0
 30
0.0
  9
$UCSORGRIGHT
 10
0.0
 20
0.0
 30
0.0
  9
$UCSORGFRONT
 10
0.0
 20
0.0
 30
0.0
  9
$UCSORGBACK
 10
0.0
 20
0.0
 30
0.0
  9
$PUCSBASE
  2

  9
$PUCSNAME
  2

  9
$PUCSORG
 10
0.0
 20
0.0
 30
0.0
  9
$PUCSXDIR
 10
1.0
 20
0.0
 30
0.0
  9
$PUCSYDIR
 10
0.0
 20
1.0
 30
0.0
  9
$PUCSORTHOREF
  2

  9
$PUCSORTHOVIEW
 70
     0
  9
$PUCSORGTOP
 10
0.0
 20
0.0
 30
0.0
  9
$PUCSORGBOTTOM
 10
0.0
 20
0.0
 30
0.0
  9
$PUCSORGLEFT
 10
0.0
 20
0.0
 30
0.0
  9
$PUCSORGRIGHT
 10
0.0
 20
0.0
 30
0.0
  9
$PUCSORGFRONT
 10
0.0
 20
0.0
 30
0.0
  9
$PUCSORGBACK
 10
0.0
 20
0.0
 30
0.0
  9
$USERI1
 70
     0
  9
$USERI2
 70
     0
  9
$USERI3
 70
     0
  9
$USERI4
 70
     0
  9
$USERI5
 70
     0
  9
$USERR1
 40
0.0
  9
$USERR2
 40
0.0
  9
$USERR3
 40
0.0
  9
$USERR4
 40
0.0
  9
$USERR5
 40
0.0
  9
$WORLDVIEW
 70
     1
  9
$SHADEDGE
 70
     3
  9
$SHADEDIF
 70
    70
  9
$TILEMODE
 70
     1
  9
$MAXACTVP
 70
    64
  9
$PINSBASE
 10
0.0
 20
0.0
 30
0.0
  9
$PLIMCHECK
 70
     0
  9
$PEXTMIN
 10
28.77184958457945
 20
19.7760160923004
 30
0.0
  9
$PEXTMAX
 10
258.9466462612152
 20
177.9841448307037
 30
0.0
  9
$PLIMMIN
 10
-4.603759765625
 20
-7.651750087738037
  9
$PLIMMAX
 10
292.3222351074219
 20
202.4062485694885
  9
$UNITMODE
 70
     0
  9
$VISRETAIN
 70
     1
  9
$PLINEGEN
 70
     0
  9
$PSLTSCALE
 70
     1
  9
$TREEDEPTH
 70
  3020
  9
$CMLSTYLE
  2
Standard
  9
$CMLJUST
 70
     0
  9
$CMLSCALE
 40
20.0
  9
$PROXYGRAPHICS
 70
     1
  9
$MEASUREMENT
 70
     1
  9
$CELWEIGHT
370
    -1
  9
$ENDCAPS
280
     0
  9
$JOINSTYLE
280
     0
  9
$LWDISPLAY
290
     0
  9
$INSUNITS
 70
     4
  9
$HYPERLINKBASE
  1

  9
$STYLESHEET
  1

  9
$XEDIT
290
     1
  9
$CEPSNTYPE
380
     0
  9
$PSTYLEMODE
290
     1
  9
$FINGERPRINTGUID
  2
{497C90CF-05F2-11D4-B1E1-0000B48F6CD8}
  9
$VERSIONGUID
  2
{EB5AEA1D-B78F-4967-BAC4-18CBCC828953}
  9
$EXTNAMES
290
     1
  9
$PSVPSCALE
 40
0.0
  9
$OLESTARTUP
290
     0
  0
ENDSEC
  0
SECTION
  2
CLASSES
  0
CLASS
  1
ACDBDICTIONARYWDFLT
  2
AcDbDictionaryWithDefault
  3
AutoCAD 2000
 90
        0
280
     0
281
     0
  0
CLASS
  1
ACDBPLACEHOLDER
  2
AcDbPlaceHolder
  3
AutoCAD 2000
 90
        0
280
     0
281
     0
  0
CLASS
  1
LAYOUT
  2
AcDbLayout
  3
AutoCAD 2000
 90
        0
280
     0
281
     0
  0
CLASS
  1
DICTIONARYVAR
  2
AcDbDictionaryVar
  3
AutoCAD 2000
 90
    32768
280
     0
281
     0
  0
ENDSEC
  0
SECTION
  2
TABLES
  0
TABLE
  2
VPORT
  5
19
330
0
100
AcDbSymbolTable
 70
     3
  0
VPORT
  5
2B7
330
19
100
AcDbSymbolTableRecord
100
AcDbViewportTableRecord
  2
*Active
 70
     0
 10
0.0
 20
0.0
 11
1.0
 21
1.0
 12
886.7717488021481
 22
105.6177255854731
 13
0.0
 23
0.0
 14
10.0
 24
10.0
 15
10.0
 25
10.0
 16
0.0
 26
0.0
 36
1.0
 17
0.0
 27
0.0
 37
0.0
 40
45.42727481472278
 41
1.496962332928311
 42
50.0
 43
0.0
 44
0.0
 50
0.0
 51
0.0
 71
     0
 72
   100
 73
     1
 74
     3
 75
     0
 76
     0
 77
     0
 78
     0
281
     0
 65
     1
110
0.0
120
0.0
130
0.0
111
1.0
121
0.0
131
0.0
112
0.0
122
1.0
132
0.0
 79
     0
146
0.0
  0
ENDTAB
  0
TABLE
  2
LTYPE
  5
14
330
0
100
AcDbSymbolTable
 70
     1
  0
LTYPE
  5
15
330
14
100
AcDbSymbolTableRecord
100
AcDbLinetypeTableRecord
  2
ByBlock
 70
     0
  3

 72
    65
 73
     0
 40
0.0
  0
LTYPE
  5
16
330
14
100
AcDbSymbolTableRecord
100
AcDbLinetypeTableRecord
  2
ByLayer
 70
     0
  3

 72
    65
 73
     0
 40
0.0
  0
LTYPE
  5
8
330
14
100
AcDbSymbolTableRecord
100
AcDbLinetypeTableRecord
  2
Continuous
 70
     0
  3
Solid line
 72
    65
 73
     0
 40
0.0
  0
ENDTAB
  0
TABLE
  2
LAYER
  5
10
330
0
100
AcDbSymbolTable
 70
     5
  0
LAYER
  5
4
330
10
100
AcDbSymbolTableRecord
100
AcDbLayerTableRecord
  2
0
 70
     0
 62
     7
  6
Continuous
370
    -3
390
5
  0
LAYER
  5
25
330
10
100
AcDbSymbolTableRecord
100
AcDbLayerTableRecord
  2
KRABICKA
 70
     0
 62
     7
  6
Continuous
370
    -3
390
5
  0
LAYER
  5
1A7
330
10
100
AcDbSymbolTableRecord
100
AcDbLayerTableRecord
  2
SVORKY
 70
     0
 62
     3
  6
Continuous
370
    -3
390
5
  0
LAYER
  5
27
330
10
100
AcDbSymbolTableRecord
100
AcDbLayerTableRecord
  2
STITEK_M
 70
     0
 62
     7
  6
Continuous
370
    -3
390
5
  0
LAYER
  5
1AB
330
10
100
AcDbSymbolTableRecord
100
AcDbLayerTableRecord
  2
SVORKY_POPIS
 70
     0
 62
     7
  6
Continuous
370
    -3
390
5
  0
ENDTAB
  0
TABLE
  2
STYLE
  5
11
330
0
100
AcDbSymbolTable
 70
     5
  0
STYLE
  5
12
330
11
100
AcDbSymbolTableRecord
100
AcDbTextStyleTableRecord
  2
Standard
 70
     0
 40
0.0
 41
0.8
 50
0.0
 71
     0
 42
20.0
  3
simplex.shx
  4

  0
STYLE
  5
202
330
11
100
AcDbSymbolTableRecord
100
AcDbTextStyleTableRecord
  2
FUTURA_XXL
 70
     0
 40
0.0
 41
1.0
 50
0.0
 71
     0
 42
1.199999999999999
  3
FUTURAXK.TTF
  4

1001
ACAD
1000
Futura XBlk BT
1071
       34
  0
STYLE
  5
1AC
330
11
100
AcDbSymbolTableRecord
100
AcDbTextStyleTableRecord
  2
COMIC
 70
     0
 40
0.0
 41
1.0
 50
0.0
 71
     0
 42
1.5
  3
COMIC.TTF
  4

1001
ACAD
1000
Comic Sans MS
1071
       66
  0
STYLE
  5
35
330
11
100
AcDbSymbolTableRecord
100
AcDbTextStyleTableRecord
  2
ARIAL_T
 70
     0
 40
0.0
 41
1.0
 50
0.0
 71
     0
 42
2.2
  3
ARIALBD.TTF
  4

1001
ACAD
1000
Arial
1071
 33615394
  0
STYLE
  5
1EC
330
11
100
AcDbSymbolTableRecord
100
AcDbTextStyleTableRecord
  2
ARIAL
 70
     0
 40
0.0
 41
1.0
 50
0.0
 71
     0
 42
2.2
  3
ARIAL.TTF
  4

1001
ACAD
1000
Arial
1071
       34
  0
ENDTAB
  0
TABLE
  2
VIEW
  5
17
330
0
100
AcDbSymbolTable
 70
     0
  0
ENDTAB
  0
TABLE
  2
UCS
  5
18
330
0
100
AcDbSymbolTable
 70
     0
  0
ENDTAB
  0
TABLE
  2
APPID
  5
1B
330
0
100
AcDbSymbolTable
 70
     1
  0
APPID
  5
1C
330
1B
100
AcDbSymbolTableRecord
100
AcDbRegAppTableRecord
  2
ACAD
 70
     0
  0
ENDTAB
  0
TABLE
  2
DIMSTYLE
  5
1D
330
0
100
AcDbSymbolTable
 70
     1
100
AcDbDimStyleTable
 71
     0
  0
DIMSTYLE
105
23
330
1D
100
AcDbSymbolTableRecord
100
AcDbDimStyleTableRecord
  2
ISO-25
 70
     0
 41
2.5
 42
0.625
 43
3.75
 44
1.25
 73
     0
 74
     0
 77
     1
 78
     8
140
2.5
141
2.5
143
0.03937007874016
147
0.625
171
     3
172
     1
271
     2
272
     2
274
     3
278
    44
283
     0
284
     8
340
12
  0
ENDTAB
  0
TABLE
  2
BLOCK_RECORD
  5
1
330
0
100
AcDbSymbolTable
 70
     0
  0
BLOCK_RECORD
  5
2
330
1
100
AcDbSymbolTableRecord
100
AcDbBlockTableRecord
  2
*Model_Space
340
A
  0
BLOCK_RECORD
  5
C
330
1
100
AcDbSymbolTableRecord
100
AcDbBlockTableRecord
  2
*Paper_Space
340
F
  0
ENDTAB
  0
ENDSEC
  0
SECTION
  2
BLOCKS
  0
BLOCK
  5
3
330
2
100
AcDbEntity
  8
0
100
AcDbBlockBegin
  2
*Model_Space
 70
     0
 10
0.0
 20
0.0
 30
0.0
  3
*Model_Space
  1

  0
ENDBLK
  5
9
330
2
100
AcDbEntity
  8
0
100
AcDbBlockEnd
  0
BLOCK
  5
D
330
C
100
AcDbEntity
 67
     1
  8
0
100
AcDbBlockBegin
  2
*Paper_Space
 70
     0
 10
0.0
 20
0.0
 30
0.0
  3
*Paper_Space
  1

  0
ENDBLK
  5
E
330
C
100
AcDbEntity
 67
     1
  8
0
100
AcDbBlockEnd
  0
ENDSEC
  0
SECTION
  2
ENTITIES
  0
LWPOLYLINE
  5
24
330
2
100
AcDbEntity
  8
KRABICKA
100
AcDbPolyline
 90
       16
 70
     1
 43
0.0
 10
906.9252337422424
 20
90.36773624590853
 10
906.9252337422424
 20
120.9800560102997
 42
0.3646334707430275
 10
904.0249278538718
 20
124.4282971521685
 10
899.676854231586
 20
125.1844838690878
 42
0.0430743139908579
 10
891.1097954940236
 20
125.9238961281041
 10
882.2406719904613
 20
125.9238961281041
 42
0.0430743139908583
 10
873.673613252899
 20
125.1844838690878
 10
869.3255396306131
 20
124.4282971521685
 42
0.3646334707430279
 10
866.4252337422423
 20
120.9800560102996
 10
866.4252337422425
 20
90.3677362459085
 42
0.3646334707430281
 10
869.3255396306131
 20
86.91949510403963
 10
873.673613252899
 20
86.16330838712034
 42
0.0430743139908581
 10
882.2406719904613
 20
85.42389612810408
 10
891.1097954940235
 20
85.42389612810408
 42
0.043074313990859
 10
899.676854231586
 20
86.16330838712039
 10
904.0249278538718
 20
86.91949510403967
 42
0.3646334707430281
  0
HATCH
  5
26
330
2
100
AcDbEntity
  8
STITEK_M
  6
Continuous
100
AcDbHatch
 10
0.0
 20
0.0
 30
0.0
210
0.0
220
0.0
230
1.0
  2
SOLID
 70
     1
 71
     1
 91
        2
 92
        1
 93
       10
 72
     1
 10
897.4217804297705
 20
113.4101791513581
 11
897.5720404187224
 21
113.3009221634719
 72
     1
 10
897.5720404187224
 20
113.3009221634719
 11
897.5148201464829
 21
113.4778827787525
 72
     1
 10
897.5148201464829
 20
113.4778827787525
 11
897.6653939732475
 21
113.5874531280919
 72
     1
 10
897.6653939732475
 20
113.5874531280919
 11
897.4793905385523
 21
113.5874531280919
 72
     1
 10
897.4793905385523
 20
113.5874531280919
 11
897.4222663495625
 21
113.7641165942969
 72
     1
 10
897.4222663495625
 20
113.7641165942969
 11
897.3648160425886
 21
113.5874531280919
 72
     1
 10
897.3648160425886
 20
113.5874531280919
 11
897.1779773897925
 21
113.5874531280919
 72
     1
 10
897.1779773897925
 20
113.5874531280919
 11
897.3290855239524
 21
113.4775794371742
 72
     1
 10
897.3290855239524
 20
113.4775794371742
 11
897.2716372307575
 21
113.3009221634719
 72
     1
 10
897.2716372307575
 20
113.3009221634719
 11
897.4217804297705
 21
113.4101791513581
 97
       10
330
28
330
29
330
2A
330
2B
330
2C
330
2D
330
2E
330
2F
330
30
330
31
 92
        1
 93
        2
 72
     2
 10
897.2045605003975
 20
113.5138997157194
 40
0.5535872164668353
 50
64.5070259632091
 51
295.4929740367915
 73
     1
 72
     2
 10
897.0379534389724
 20
113.5138997157194
 40
0.6431249524218012
 50
50.98399699531582
 51
309.0160030046831
 73
     0
 97
        2
330
32
330
33
 75
     0
 76
     1
 98
        1
 10
864.5226044491478
 20
126.6865119998682
  0
LINE
  5
28
102
{ACAD_REACTORS
330
26
102
}
330
2
100
AcDbEntity
  8
STITEK_M
  6
Continuous
100
AcDbLine
 10
897.4217804297705
 20
113.4101791513581
 30
0.0
 11
897.5720404187224
 21
113.3009221634719
 31
0.0
  0
LINE
  5
29
102
{ACAD_REACTORS
330
26
102
}
330
2
100
AcDbEntity
  8
STITEK_M
  6
Continuous
100
AcDbLine
 10
897.5720404187224
 20
113.3009221634719
 30
0.0
 11
897.5148201464829
 21
113.4778827787525
 31
0.0
  0
LINE
  5
2A
102
{ACAD_REACTORS
330
26
102
}
330
2
100
AcDbEntity
  8
STITEK_M
  6
Continuous
100
AcDbLine
 10
897.5148201464829
 20
113.4778827787525
 30
0.0
 11
897.6653939732475
 21
113.5874531280919
 31
0.0
  0
LINE
  5
2B
102
{ACAD_REACTORS
330
26
102
}
330
2
100
AcDbEntity
  8
STITEK_M
  6
Continuous
100
AcDbLine
 10
897.6653939732475
 20
113.5874531280919
 30
0.0
 11
897.4793905385523
 21
113.5874531280919
 31
0.0
  0
LINE
  5
2C
102
{ACAD_REACTORS
330
26
102
}
330
2
100
AcDbEntity
  8
STITEK_M
  6
Continuous
100
AcDbLine
 10
897.4793905385523
 20
113.5874531280919
 30
0.0
 11
897.4222663495625
 21
113.7641165942969
 31
0.0
  0
LINE
  5
2D
102
{ACAD_REACTORS
330
26
102
}
330
2
100
AcDbEntity
  8
STITEK_M
  6
Continuous
100
AcDbLine
 10
897.4222663495625
 20
113.7641165942969
 30
0.0
 11
897.3648160425886
 21
113.5874531280919
 31
0.0
  0
LINE
  5
2E
102
{ACAD_REACTORS
330
26
102
}
330
2
100
AcDbEntity
  8
STITEK_M
  6
Continuous
100
AcDbLine
 10
897.3648160425886
 20
113.5874531280919
 30
0.0
 11
897.1779773897925
 21
113.5874531280919
 31
0.0
  0
LINE
  5
2F
102
{ACAD_REACTORS
330
26
102
}
330
2
100
AcDbEntity
  8
STITEK_M
  6
Continuous
100
AcDbLine
 10
897.1779773897925
 20
113.5874531280919
 30
0.0
 11
897.3290855239524
 21
113.4775794371742
 31
0.0
  0
LINE
  5
30
102
{ACAD_REACTORS
330
26
102
}
330
2
100
AcDbEntity
  8
STITEK_M
  6
Continuous
100
AcDbLine
 10
897.3290855239524
 20
113.4775794371742
 30
0.0
 11
897.2716372307575
 21
113.3009221634719
 31
0.0
  0
LINE
  5
31
102
{ACAD_REACTORS
330
26
102
}
330
2
100
AcDbEntity
  8
STITEK_M
  6
Continuous
100
AcDbLine
 10
897.2716372307575
 20
113.3009221634719
 30
0.0
 11
897.4217804297705
 21
113.4101791513581
 31
0.0
  0
ARC
  5
32
102
{ACAD_REACTORS
330
26
102
}
330
2
100
AcDbEntity
  8
STITEK_M
  6
Continuous
100
AcDbCircle
 10
897.2045605003975
 20
113.5138997157194
 30
0.0
 40
0.5535872164668353
100
AcDbArc
 50
64.5070259632091
 51
295.4929740367915
  0
ARC
  5
33
102
{ACAD_REACTORS
330
26
102
}
330
2
100
AcDbEntity
  8
STITEK_M
  6
Continuous
100
AcDbCircle
 10
897.0379534389724
 20
113.5138997157194
 30
0.0
 40
0.6431249524218012
100
AcDbArc
 50
50.98399699531682
 51
309.0160030046841
  0
TEXT
  5
34
330
2
100
AcDbEntity
  8
STITEK_M
  6
Continuous
100
AcDbText
 10
875.9660298633377
 20
113.0696923016033
 30
0.0
 40
0.89
  1
II
  7
ARIAL_T
 72
     4
 11
876.3114664254114
 21
113.5146923016033
 31
0.0
100
AcDbText
  0
LWPOLYLINE
  5
36
330
2
100
AcDbEntity
  8
STITEK_M
100
AcDbPolyline
 90
        4
 70
     1
 43
0.0
 10
887.3630172754122
 20
117.89511530868
 10
888.7282138872228
 20
119.2603119204907
 42
-0.6785012566746707
 10
894.5196734816653
 20
94.37164150837608
 42
-0.9999999999999905
 10
893.6639164191829
 20
95.60358300455655
 42
0.7132665622273344
  0
CIRCLE
  5
37
330
2
100
AcDbEntity
  8
KRABICKA
 62
     9
100
AcDbCircle
 10
886.6752337422424
 20
105.6644385566969
 30
0.0
 40
11.5
  0
CIRCLE
  5
38
330
2
100
AcDbEntity
  8
KRABICKA
100
AcDbCircle
 10
886.6752337422424
 20
105.6644385566969
 30
0.0
 40
11.75
  0
LWPOLYLINE
  5
39
330
2
100
AcDbEntity
  8
STITEK_M
100
AcDbPolyline
 90
        4
 70
     1
 43
0.0
 10
878.8307940028197
 20
94.37164150837608
 42
0.9999999999999932
 10
879.6865510653022
 20
95.60358300455655
 42
-0.7132665622273351
 10
885.9874502090729
 20
117.89511530868
 10
884.6222535972621
 20
119.2603119204907
 42
0.6785012566746703
  0
LWPOLYLINE
  5
3A
330
2
100
AcDbEntity
  8
KRABICKA
100
AcDbPolyline
 90
       16
 70
     1
 43
0.0
 10
898.991489532581
 20
121.2436368498091
 42
0.0430743139908579
 10
891.1097954940236
 20
121.9238961281041
 10
882.2406719904613
 20
121.9238961281041
 42
0.0430743139908583
 10
874.3589779519041
 20
121.2436368498091
 10
872.4968808053644
 20
120.9197938678022
 42
0.3646334707430334
 10
870.4252337422424
 20
118.456764480753
 10
870.4252337422426
 20
92.89102777545512
 42
0.3646334707430252
 10
872.4968808053645
 20
90.42799838840593
 10
874.3589779519039
 20
90.10415540639902
 42
0.0430743139908581
 10
882.2406719904613
 20
89.42389612810407
 10
891.1097954940235
 20
89.42389612810407
 42
0.043074313990859
 10
898.991489532581
 20
90.10415540639909
 10
900.8535866791206
 20
90.42799838840597
 42
0.3646334707430278
 10
902.9252337422423
 20
92.89102777545517
 10
902.9252337422423
 20
118.456764480753
 42
0.3646334707430287
 10
900.8535866791206
 20
120.9197938678022
  0
LWPOLYLINE
  5
3B
330
2
100
AcDbEntity
  8
KRABICKA
 62
     9
100
AcDbPolyline
 90
       16
 70
     1
 43
0.0
 10
898.9470350647925
 20
120.988023660021
 42
0.0430743139908624
 10
891.1097954940236
 20
121.664446128104
 10
882.2406719904615
 20
121.664446128104
 42
0.0430743139908566
 10
874.4034324196933
 20
120.9880236600211
 10
872.5413352731536
 20
120.6641806780142
 42
0.3646334707430297
 10
870.6846837422425
 20
118.456764480753
 10
870.6846837422427
 20
92.89102777545512
 42
0.3646334707430224
 10
872.5413352731536
 20
90.6836115781939
 10
874.4034324196922
 20
90.35976859618713
 42
0.0430743139908625
 10
882.2406719904613
 20
89.68334612810407
 10
891.1097954940235
 20
89.68334612810409
 42
0.0430743139908587
 10
898.9470350647916
 20
90.35976859618699
 10
900.8091322113314
 20
90.68361157819394
 42
0.3646334707430299
 10
902.6657837422424
 20
92.89102777545513
 10
902.6657837422424
 20
118.456764480753
 42
0.3646334707430238
 10
900.8091322113314
 20
120.6641806780142
  0
POLYLINE
  5
3C
330
2
100
AcDbEntity
  8
KRABICKA
 62
     9
100
AcDb2dPolyline
 66
     1
 10
0.0
 20
0.0
 30
0.0
 70
     5
 75
     6
  0
VERTEX
  5
3D
330
3C
100
AcDbEntity
  8
KRABICKA
 62
     9
100
AcDbVertex
100
AcDb2dVertex
 10
886.6752337422425
 20
88.92389612810402
 30
0.0
 70
    16
  0
VERTEX
  5
3E
330
3C
100
AcDbEntity
  8
KRABICKA
 62
     9
100
AcDbVertex
100
AcDb2dVertex
 10
882.1231886523273
 20
88.95420676914957
 30
0.0
 70
     8
  0
VERTEX
  5
3F
330
3C
100
AcDbEntity
  8
KRABICKA
 62
     9
100
AcDbVertex
100
AcDb2dVertex
 10
881.6477348433791
 20
88.9637660080435
 30
0.0
 70
     8
  0
VERTEX
  5
40
330
3C
100
AcDbEntity
  8
KRABICKA
 62
     9
100
AcDbVertex
100
AcDb2dVertex
 10
881.1963753029898
 20
88.97528523706631
 30
0.0
 70
     8
  0
VERTEX
  5
41
330
3C
100
AcDbEntity
  8
KRABICKA
 62
     9
100
AcDbVertex
100
AcDb2dVertex
 10
880.7633589277639
 20
88.98890986509954
 30
0.0
 70
     8
  0
VERTEX
  5
42
330
3C
100
AcDbEntity
  8
KRABICKA
 62
     9
100
AcDbVertex
100
AcDb2dVertex
 10
880.3429346143053
 20
89.0047853010248
 30
0.0
 70
     8
  0
VERTEX
  5
43
330
3C
100
AcDbEntity
  8
KRABICKA
 62
     9
100
AcDbVertex
100
AcDb2dVertex
 10
879.9293512592184
 20
89.02305695372371
 30
0.0
 70
     8
  0
VERTEX
  5
44
330
3C
100
AcDbEntity
  8
KRABICKA
 62
     9
100
AcDbVertex
100
AcDb2dVertex
 10
879.5168577591073
 20
89.04387023207783
 30
0.0
 70
     8
  0
VERTEX
  5
45
330
3C
100
AcDbEntity
  8
KRABICKA
 62
     9
100
AcDbVertex
100
AcDb2dVertex
 10
879.0997030105762
 20
89.06737054496876
 30
0.0
 70
     8
  0
VERTEX
  5
46
330
3C
100
AcDbEntity
  8
KRABICKA
 62
     9
100
AcDbVertex
100
AcDb2dVertex
 10
878.6721359102294
 20
89.09370330127812
 30
0.0
 70
     8
  0
VERTEX
  5
47
330
3C
100
AcDbEntity
  8
KRABICKA
 62
     9
100
AcDbVertex
100
AcDb2dVertex
 10
878.2303250465465
 20
89.12289972902204
 30
0.0
 70
     8
  0
VERTEX
  5
48
330
3C
100
AcDbEntity
  8
KRABICKA
 62
     9
100
AcDbVertex
100
AcDb2dVertex
 10
877.7781177755116
 20
89.1545343327551
 30
0.0
 70
     8
  0
VERTEX
  5
49
330
3C
100
AcDbEntity
  8
KRABICKA
 62
     9
100
AcDbVertex
100
AcDb2dVertex
 10
877.3212811449836
 20
89.1880674361665
 30
0.0
 70
     8
  0
VERTEX
  5
4A
330
3C
100
AcDbEntity
  8
KRABICKA
 62
     9
100
AcDbVertex
100
AcDb2dVertex
 10
876.865582202822
 20
89.22295936294535
 30
0.0
 70
     8
  0
VERTEX
  5
4B
330
3C
100
AcDbEntity
  8
KRABICKA
 62
     9
100
AcDbVertex
100
AcDb2dVertex
 10
876.4167879968864
 20
89.2586704367808
 30
0.0
 70
     8
  0
VERTEX
  5
4C
330
3C
100
AcDbEntity
  8
KRABICKA
 62
     9
100
AcDbVertex
100
AcDb2dVertex
 10
875.9806655750356
 20
89.29466098136201
 30
0.0
 70
     8
  0
VERTEX
  5
4D
330
3C
100
AcDbEntity
  8
KRABICKA
 62
     9
100
AcDbVertex
100
AcDb2dVertex
 10
875.5629819851295
 20
89.3303913203781
 30
0.0
 70
     8
  0
VERTEX
  5
4E
330
3C
100
AcDbEntity
  8
KRABICKA
 62
     9
100
AcDbVertex
100
AcDb2dVertex
 10
875.169504275027
 20
89.36532177751832
 30
0.0
 70
     8
  0
VERTEX
  5
4F
330
3C
100
AcDbEntity
  8
KRABICKA
 62
     9
100
AcDbVertex
100
AcDb2dVertex
 10
874.8047374572108
 20
89.39903599102867
 30
0.0
 70
     8
  0
VERTEX
  5
50
330
3C
100
AcDbEntity
  8
KRABICKA
 62
     9
100
AcDbVertex
100
AcDb2dVertex
 10
874.4681384026565
 20
89.43161085738314
 30
0.0
 70
     8
  0
VERTEX
  5
51
330
3C
100
AcDbEntity
  8
KRABICKA
 62
     9
100
AcDbVertex
100
AcDb2dVertex
 10
874.1579019469616
 20
89.46324658761254
 30
0.0
 70
     8
  0
VERTEX
  5
52
330
3C
100
AcDbEntity
  8
KRABICKA
 62
     9
100
AcDbVertex
100
AcDb2dVertex
 10
873.8722229257254
 20
89.49414339274779
 30
0.0
 70
     8
  0
VERTEX
  5
53
330
3C
100
AcDbEntity
  8
KRABICKA
 62
     9
100
AcDbVertex
100
AcDb2dVertex
 10
873.6092961745457
 20
89.5245014838197
 30
0.0
 70
     8
  0
VERTEX
  5
54
330
3C
100
AcDbEntity
  8
KRABICKA
 62
     9
100
AcDbVertex
100
AcDb2dVertex
 10
873.3673165290211
 20
89.55452107185923
 30
0.0
 70
     8
  0
VERTEX
  5
55
330
3C
100
AcDbEntity
  8
KRABICKA
 62
     9
100
AcDbVertex
100
AcDb2dVertex
 10
873.1444788247499
 20
89.58440236789718
 30
0.0
 70
     8
  0
VERTEX
  5
56
330
3C
100
AcDbEntity
  8
KRABICKA
 62
     9
100
AcDbVertex
100
AcDb2dVertex
 10
872.9389778973306
 20
89.61434558296446
 30
0.0
 70
     8
  0
VERTEX
  5
57
330
3C
100
AcDbEntity
  8
KRABICKA
 62
     9
100
AcDbVertex
100
AcDb2dVertex
 10
872.7489956779564
 20
89.64458040859287
 30
0.0
 70
     8
  0
VERTEX
  5
58
330
3C
100
AcDbEntity
  8
KRABICKA
 62
     9
100
AcDbVertex
100
AcDb2dVertex
 10
872.5726624802
 20
89.67545445831822
 30
0.0
 70
     8
  0
VERTEX
  5
59
330
3C
100
AcDbEntity
  8
KRABICKA
 62
     9
100
AcDbVertex
100
AcDb2dVertex
 10
872.4080957132288
 20
89.7073448261772
 30
0.0
 70
     8
  0
VERTEX
  5
5A
330
3C
100
AcDbEntity
  8
KRABICKA
 62
     9
100
AcDbVertex
100
AcDb2dVertex
 10
872.2534127862108
 20
89.7406286062066
 30
0.0
 70
     8
  0
VERTEX
  5
5B
330
3C
100
AcDbEntity
  8
KRABICKA
 62
     9
100
AcDbVertex
100
AcDb2dVertex
 10
872.1067311083132
 20
89.77568289244311
 30
0.0
 70
     8
  0
VERTEX
  5
5C
330
3C
100
AcDbEntity
  8
KRABICKA
 62
     9
100
AcDbVertex
100
AcDb2dVertex
 10
871.9661680887034
 20
89.81288477892352
 30
0.0
 70
     8
  0
VERTEX
  5
5D
330
3C
100
AcDbEntity
  8
KRABICKA
 62
     9
100
AcDbVertex
100
AcDb2dVertex
 10
871.8298411365493
 20
89.85261135968448
 30
0.0
 70
     8
  0
VERTEX
  5
5E
330
3C
100
AcDbEntity
  8
KRABICKA
 62
     9
100
AcDbVertex
100
AcDb2dVertex
 10
871.6958676610184
 20
89.89523972876282
 30
0.0
 70
     8
  0
VERTEX
  5
5F
330
3C
100
AcDbEntity
  8
KRABICKA
 62
     9
100
AcDbVertex
100
AcDb2dVertex
 10
871.5627287329791
 20
89.94105790193527
 30
0.0
 70
     8
  0
VERTEX
  5
60
330
3C
100
AcDbEntity
  8
KRABICKA
 62
     9
100
AcDbVertex
100
AcDb2dVertex
 10
871.4303600701033
 20
89.98999758193892
 30
0.0
 70
     8
  0
VERTEX
  5
61
330
3C
100
AcDbEntity
  8
KRABICKA
 62
     9
100
AcDbVertex
100
AcDb2dVertex
 10
871.2990610517632
 20
90.04190139325087
 30
0.0
 70
     8
  0
VERTEX
  5
62
330
3C
100
AcDbEntity
  8
KRABICKA
 62
     9
100
AcDbVertex
100
AcDb2dVertex
 10
871.1691310573321
 20
90.09661196034821
 30
0.0
 70
     8
  0
VERTEX
  5
63
330
3C
100
AcDbEntity
  8
KRABICKA
 62
     9
100
AcDbVertex
100
AcDb2dVertex
 10
871.0408694661822
 20
90.15397190770807
 30
0.0
 70
     8
  0
VERTEX
  5
64
330
3C
100
AcDbEntity
  8
KRABICKA
 62
     9
100
AcDbVertex
100
AcDb2dVertex
 10
870.9145756576864
 20
90.21382385980757
 30
0.0
 70
     8
  0
VERTEX
  5
65
330
3C
100
AcDbEntity
  8
KRABICKA
 62
     9
100
AcDbVertex
100
AcDb2dVertex
 10
870.7905490112173
 20
90.27601044112378
 30
0.0
 70
     8
  0
VERTEX
  5
66
330
3C
100
AcDbEntity
  8
KRABICKA
 62
     9
100
AcDbVertex
100
AcDb2dVertex
 10
870.6690889061476
 20
90.34037427613387
 30
0.0
 70
     8
  0
VERTEX
  5
67
330
3C
100
AcDbEntity
  8
KRABICKA
 62
     9
100
AcDbVertex
100
AcDb2dVertex
 10
870.5504305271968
 20
90.40681462798421
 30
0.0
 70
     8
  0
VERTEX
  5
68
330
3C
100
AcDbEntity
  8
KRABICKA
 62
     9
100
AcDbVertex
100
AcDb2dVertex
 10
870.4345522804736
 20
90.47545731449833
 30
0.0
 70
     8
  0
VERTEX
  5
69
330
3C
100
AcDbEntity
  8
KRABICKA
 62
     9
100
AcDbVertex
100
AcDb2dVertex
 10
870.3213683774327
 20
90.54648479216906
 30
0.0
 70
     8
  0
VERTEX
  5
6A
330
3C
100
AcDbEntity
  8
KRABICKA
 62
     9
100
AcDbVertex
100
AcDb2dVertex
 10
870.2107930295294
 20
90.62007951748928
 30
0.0
 70
     8
  0
VERTEX
  5
6B
330
3C
100
AcDbEntity
  8
KRABICKA
 62
     9
100
AcDbVertex
100
AcDb2dVertex
 10
870.1027404482193
 20
90.69642394695177
 30
0.0
 70
     8
  0
VERTEX
  5
6C
330
3C
100
AcDbEntity
  8
KRABICKA
 62
     9
100
AcDbVertex
100
AcDb2dVertex
 10
869.9971248449573
 20
90.77570053704944
 30
0.0
 70
     8
  0
VERTEX
  5
6D
330
3C
100
AcDbEntity
  8
KRABICKA
 62
     9
100
AcDbVertex
100
AcDb2dVertex
 10
869.8938604311988
 20
90.85809174427501
 30
0.0
 70
     8
  0
VERTEX
  5
6E
330
3C
100
AcDbEntity
  8
KRABICKA
 62
     9
100
AcDbVertex
100
AcDb2dVertex
 10
869.7928614183989
 20
90.94378002512144
 30
0.0
 70
     8
  0
VERTEX
  5
6F
330
3C
100
AcDbEntity
  8
KRABICKA
 62
     9
100
AcDbVertex
100
AcDb2dVertex
 10
869.6941295419078
 20
91.03296320163341
 30
0.0
 70
     8
  0
VERTEX
  5
70
330
3C
100
AcDbEntity
  8
KRABICKA
 62
     9
100
AcDbVertex
100
AcDb2dVertex
 10
869.5980166326549
 20
91.12590055806345
 30
0.0
 70
     8
  0
VERTEX
  5
71
330
3C
100
AcDbEntity
  8
KRABICKA
 62
     9
100
AcDbVertex
100
AcDb2dVertex
 10
869.5049620454643
 20
91.22286674421596
 30
0.0
 70
     8
  0
VERTEX
  5
72
330
3C
100
AcDbEntity
  8
KRABICKA
 62
     9
100
AcDbVertex
100
AcDb2dVertex
 10
869.4154051351601
 20
91.32413640989538
 30
0.0
 70
     8
  0
VERTEX
  5
73
330
3C
100
AcDbEntity
  8
KRABICKA
 62
     9
100
AcDbVertex
100
AcDb2dVertex
 10
869.3297852565665
 20
91.42998420490611
 30
0.0
 70
     8
  0
VERTEX
  5
74
330
3C
100
AcDbEntity
  8
KRABICKA
 62
     9
100
AcDbVertex
100
AcDb2dVertex
 10
869.2485417645077
 20
91.54068477905255
 30
0.0
 70
     8
  0
VERTEX
  5
75
330
3C
100
AcDbEntity
  8
KRABICKA
 62
     9
100
AcDbVertex
100
AcDb2dVertex
 10
869.172114013808
 20
91.65651278213918
 30
0.0
 70
     8
  0
VERTEX
  5
76
330
3C
100
AcDbEntity
  8
KRABICKA
 62
     9
100
AcDbVertex
100
AcDb2dVertex
 10
869.1009413592912
 20
91.77774286397033
 30
0.0
 70
     8
  0
VERTEX
  5
77
330
3C
100
AcDbEntity
  8
KRABICKA
 62
     9
100
AcDbVertex
100
AcDb2dVertex
 10
869.0353900998806
 20
91.90826461586841
 30
0.0
 70
     8
  0
VERTEX
  5
78
330
3C
100
AcDbEntity
  8
KRABICKA
 62
     9
100
AcDbVertex
100
AcDb2dVertex
 10
868.975534310895
 20
92.06642739522726
 30
0.0
 70
     8
  0
VERTEX
  5
79
330
3C
100
AcDbEntity
  8
KRABICKA
 62
     9
100
AcDbVertex
100
AcDb2dVertex
 10
868.9213750117518
 20
92.27419550095874
 30
0.0
 70
     8
  0
VERTEX
  5
7A
330
3C
100
AcDbEntity
  8
KRABICKA
 62
     9
100
AcDbVertex
100
AcDb2dVertex
 10
868.8729132218691
 20
92.55353323197454
 30
0.0
 70
     8
  0
VERTEX
  5
7B
330
3C
100
AcDbEntity
  8
KRABICKA
 62
     9
100
AcDbVertex
100
AcDb2dVertex
 10
868.8301499606641
 20
92.92640488718655
 30
0.0
 70
     8
  0
VERTEX
  5
7C
330
3C
100
AcDbEntity
  8
KRABICKA
 62
     9
100
AcDbVertex
100
AcDb2dVertex
 10
868.7930862475548
 20
93.41477476550654
 30
0.0
 70
     8
  0
VERTEX
  5
7D
330
3C
100
AcDbEntity
  8
KRABICKA
 62
     9
100
AcDbVertex
100
AcDb2dVertex
 10
868.7617231019585
 20
94.04060716584627
 30
0.0
 70
     8
  0
VERTEX
  5
7E
330
3C
100
AcDbEntity
  8
KRABICKA
 62
     9
100
AcDbVertex
100
AcDb2dVertex
 10
868.7360615432933
 20
94.82586638711756
 30
0.0
 70
     8
  0
VERTEX
  5
7F
330
3C
100
AcDbEntity
  8
KRABICKA
 62
     9
100
AcDbVertex
100
AcDb2dVertex
 10
868.7159836167746
 20
95.78507703008355
 30
0.0
 70
     8
  0
VERTEX
  5
80
330
3C
100
AcDbEntity
  8
KRABICKA
 62
     9
100
AcDbVertex
100
AcDb2dVertex
 10
868.7008954708108
 20
96.90300490291244
 30
0.0
 70
     8
  0
VERTEX
  5
81
330
3C
100
AcDbEntity
  8
KRABICKA
 62
     9
100
AcDbVertex
100
AcDb2dVertex
 10
868.6900842796084
 20
98.15697611562388
 30
0.0
 70
     8
  0
VERTEX
  5
82
330
3C
100
AcDbEntity
  8
KRABICKA
 62
     9
100
AcDbVertex
100
AcDb2dVertex
 10
868.6828372173739
 20
99.52431677823739
 30
0.0
 70
     8
  0
VERTEX
  5
83
330
3C
100
AcDbEntity
  8
KRABICKA
 62
     9
100
AcDbVertex
100
AcDb2dVertex
 10
868.6784414583135
 20
100.9823530007725
 30
0.0
 70
     8
  0
VERTEX
  5
84
330
3C
100
AcDbEntity
  8
KRABICKA
 62
     9
100
AcDbVertex
100
AcDb2dVertex
 10
868.676184176634
 20
102.508410893249
 30
0.0
 70
     8
  0
VERTEX
  5
85
330
3C
100
AcDbEntity
  8
KRABICKA
 62
     9
100
AcDbVertex
100
AcDb2dVertex
 10
868.6753525465414
 20
104.0798165656863
 30
0.0
 70
     8
  0
VERTEX
  5
86
330
3C
100
AcDbEntity
  8
KRABICKA
 62
     9
100
AcDbVertex
100
AcDb2dVertex
 10
868.6752337422426
 20
105.673896128104
 30
0.0
 70
     8
  0
VERTEX
  5
87
330
3C
100
AcDbEntity
  8
KRABICKA
 62
     9
100
AcDbVertex
100
AcDb2dVertex
 10
868.6753525465414
 20
107.2679756905217
 30
0.0
 70
     8
  0
VERTEX
  5
88
330
3C
100
AcDbEntity
  8
KRABICKA
 62
     9
100
AcDbVertex
100
AcDb2dVertex
 10
868.676184176634
 20
108.839381362959
 30
0.0
 70
     8
  0
VERTEX
  5
89
330
3C
100
AcDbEntity
  8
KRABICKA
 62
     9
100
AcDbVertex
100
AcDb2dVertex
 10
868.6784414583135
 20
110.3654392554355
 30
0.0
 70
     8
  0
VERTEX
  5
8A
330
3C
100
AcDbEntity
  8
KRABICKA
 62
     9
100
AcDbVertex
100
AcDb2dVertex
 10
868.6828372173739
 20
111.8234754779707
 30
0.0
 70
     8
  0
VERTEX
  5
8B
330
3C
100
AcDbEntity
  8
KRABICKA
 62
     9
100
AcDbVertex
100
AcDb2dVertex
 10
868.6900842796084
 20
113.1908161405842
 30
0.0
 70
     8
  0
VERTEX
  5
8C
330
3C
100
AcDbEntity
  8
KRABICKA
 62
     9
100
AcDbVertex
100
AcDb2dVertex
 10
868.7008954708108
 20
114.4447873532956
 30
0.0
 70
     8
  0
VERTEX
  5
8D
330
3C
100
AcDbEntity
  8
KRABICKA
 62
     9
100
AcDbVertex
100
AcDb2dVertex
 10
868.7159836167746
 20
115.5627152261245
 30
0.0
 70
     8
  0
VERTEX
  5
8E
330
3C
100
AcDbEntity
  8
KRABICKA
 62
     9
100
AcDbVertex
100
AcDb2dVertex
 10
868.7360615432933
 20
116.5219258690905
 30
0.0
 70
     8
  0
VERTEX
  5
8F
330
3C
100
AcDbEntity
  8
KRABICKA
 62
     9
100
AcDbVertex
100
AcDb2dVertex
 10
868.7617231019585
 20
117.3071850903618
 30
0.0
 70
     8
  0
VERTEX
  5
90
330
3C
100
AcDbEntity
  8
KRABICKA
 62
     9
100
AcDbVertex
100
AcDb2dVertex
 10
868.7930862475548
 20
117.9330174907015
 30
0.0
 70
     8
  0
VERTEX
  5
91
330
3C
100
AcDbEntity
  8
KRABICKA
 62
     9
100
AcDbVertex
100
AcDb2dVertex
 10
868.8301499606641
 20
118.4213873690215
 30
0.0
 70
     8
  0
VERTEX
  5
92
330
3C
100
AcDbEntity
  8
KRABICKA
 62
     9
100
AcDbVertex
100
AcDb2dVertex
 10
868.8729132218691
 20
118.7942590242335
 30
0.0
 70
     8
  0
VERTEX
  5
93
330
3C
100
AcDbEntity
  8
KRABICKA
 62
     9
100
AcDbVertex
100
AcDb2dVertex
 10
868.9213750117518
 20
119.0735967552493
 30
0.0
 70
     8
  0
VERTEX
  5
94
330
3C
100
AcDbEntity
  8
KRABICKA
 62
     9
100
AcDbVertex
100
AcDb2dVertex
 10
868.975534310895
 20
119.2813648609808
 30
0.0
 70
     8
  0
VERTEX
  5
95
330
3C
100
AcDbEntity
  8
KRABICKA
 62
     9
100
AcDbVertex
100
AcDb2dVertex
 10
869.0353900998806
 20
119.4395276403397
 30
0.0
 70
     8
  0
VERTEX
  5
96
330
3C
100
AcDbEntity
  8
KRABICKA
 62
     9
100
AcDbVertex
100
AcDb2dVertex
 10
869.1009413592912
 20
119.5700493922377
 30
0.0
 70
     8
  0
VERTEX
  5
97
330
3C
100
AcDbEntity
  8
KRABICKA
 62
     9
100
AcDbVertex
100
AcDb2dVertex
 10
869.172114013808
 20
119.6912794740689
 30
0.0
 70
     8
  0
VERTEX
  5
98
330
3C
100
AcDbEntity
  8
KRABICKA
 62
     9
100
AcDbVertex
100
AcDb2dVertex
 10
869.2485417645077
 20
119.8071074771555
 30
0.0
 70
     8
  0
VERTEX
  5
99
330
3C
100
AcDbEntity
  8
KRABICKA
 62
     9
100
AcDbVertex
100
AcDb2dVertex
 10
869.3297852565665
 20
119.917808051302
 30
0.0
 70
     8
  0
VERTEX
  5
9A
330
3C
100
AcDbEntity
  8
KRABICKA
 62
     9
100
AcDbVertex
100
AcDb2dVertex
 10
869.4154051351601
 20
120.0236558463127
 30
0.0
 70
     8
  0
VERTEX
  5
9B
330
3C
100
AcDbEntity
  8
KRABICKA
 62
     9
100
AcDbVertex
100
AcDb2dVertex
 10
869.5049620454643
 20
120.1249255119921
 30
0.0
 70
     8
  0
VERTEX
  5
9C
330
3C
100
AcDbEntity
  8
KRABICKA
 62
     9
100
AcDbVertex
100
AcDb2dVertex
 10
869.5980166326549
 20
120.2218916981446
 30
0.0
 70
     8
  0
VERTEX
  5
9D
330
3C
100
AcDbEntity
  8
KRABICKA
 62
     9
100
AcDbVertex
100
AcDb2dVertex
 10
869.6941295419078
 20
120.3148290545747
 30
0.0
 70
     8
  0
VERTEX
  5
9E
330
3C
100
AcDbEntity
  8
KRABICKA
 62
     9
100
AcDbVertex
100
AcDb2dVertex
 10
869.7928614183989
 20
120.4040122310866
 30
0.0
 70
     8
  0
VERTEX
  5
9F
330
3C
100
AcDbEntity
  8
KRABICKA
 62
     9
100
AcDbVertex
100
AcDb2dVertex
 10
869.8938604311988
 20
120.489700511933
 30
0.0
 70
     8
  0
VERTEX
  5
A0
330
3C
100
AcDbEntity
  8
KRABICKA
 62
     9
100
AcDbVertex
100
AcDb2dVertex
 10
869.9971248449573
 20
120.5720917191587
 30
0.0
 70
     8
  0
VERTEX
  5
A1
330
3C
100
AcDbEntity
  8
KRABICKA
 62
     9
100
AcDbVertex
100
AcDb2dVertex
 10
870.1027404482193
 20
120.6513683092563
 30
0.0
 70
     8
  0
VERTEX
  5
A2
330
3C
100
AcDbEntity
  8
KRABICKA
 62
     9
100
AcDbVertex
100
AcDb2dVertex
 10
870.2107930295294
 20
120.7277127387188
 30
0.0
 70
     8
  0
VERTEX
  5
A3
330
3C
100
AcDbEntity
  8
KRABICKA
 62
     9
100
AcDbVertex
100
AcDb2dVertex
 10
870.3213683774327
 20
120.801307464039
 30
0.0
 70
     8
  0
VERTEX
  5
A4
330
3C
100
AcDbEntity
  8
KRABICKA
 62
     9
100
AcDbVertex
100
AcDb2dVertex
 10
870.4345522804736
 20
120.8723349417097
 30
0.0
 70
     8
  0
VERTEX
  5
A5
330
3C
100
AcDbEntity
  8
KRABICKA
 62
     9
100
AcDbVertex
100
AcDb2dVertex
 10
870.5504305271968
 20
120.9409776282239
 30
0.0
 70
     8
  0
VERTEX
  5
A6
330
3C
100
AcDbEntity
  8
KRABICKA
 62
     9
100
AcDbVertex
100
AcDb2dVertex
 10
870.6690889061476
 20
121.0074179800742
 30
0.0
 70
     8
  0
VERTEX
  5
A7
330
3C
100
AcDbEntity
  8
KRABICKA
 62
     9
100
AcDbVertex
100
AcDb2dVertex
 10
870.7905490112173
 20
121.0717818150843
 30
0.0
 70
     8
  0
VERTEX
  5
A8
330
3C
100
AcDbEntity
  8
KRABICKA
 62
     9
100
AcDbVertex
100
AcDb2dVertex
 10
870.9145756576864
 20
121.1339683964005
 30
0.0
 70
     8
  0
VERTEX
  5
A9
330
3C
100
AcDbEntity
  8
KRABICKA
 62
     9
100
AcDbVertex
100
AcDb2dVertex
 10
871.0408694661822
 20
121.1938203485
 30
0.0
 70
     8
  0
VERTEX
  5
AA
330
3C
100
AcDbEntity
  8
KRABICKA
 62
     9
100
AcDbVertex
100
AcDb2dVertex
 10
871.1691310573321
 20
121.2511802958599
 30
0.0
 70
     8
  0
VERTEX
  5
AB
330
3C
100
AcDbEntity
  8
KRABICKA
 62
     9
100
AcDbVertex
100
AcDb2dVertex
 10
871.2990610517632
 20
121.3058908629572
 30
0.0
 70
     8
  0
VERTEX
  5
AC
330
3C
100
AcDbEntity
  8
KRABICKA
 62
     9
100
AcDbVertex
100
AcDb2dVertex
 10
871.4303600701033
 20
121.3577946742691
 30
0.0
 70
     8
  0
VERTEX
  5
AD
330
3C
100
AcDbEntity
  8
KRABICKA
 62
     9
100
AcDbVertex
100
AcDb2dVertex
 10
871.5627287329791
 20
121.4067343542728
 30
0.0
 70
     8
  0
VERTEX
  5
AE
330
3C
100
AcDbEntity
  8
KRABICKA
 62
     9
100
AcDbVertex
100
AcDb2dVertex
 10
871.6958676610184
 20
121.4525525274453
 30
0.0
 70
     8
  0
VERTEX
  5
AF
330
3C
100
AcDbEntity
  8
KRABICKA
 62
     9
100
AcDbVertex
100
AcDb2dVertex
 10
871.8298411365493
 20
121.4951808965236
 30
0.0
 70
     8
  0
VERTEX
  5
B0
330
3C
100
AcDbEntity
  8
KRABICKA
 62
     9
100
AcDbVertex
100
AcDb2dVertex
 10
871.9661680887034
 20
121.5349074772846
 30
0.0
 70
     8
  0
VERTEX
  5
B1
330
3C
100
AcDbEntity
  8
KRABICKA
 62
     9
100
AcDbVertex
100
AcDb2dVertex
 10
872.1067311083132
 20
121.572109363765
 30
0.0
 70
     8
  0
VERTEX
  5
B2
330
3C
100
AcDbEntity
  8
KRABICKA
 62
     9
100
AcDbVertex
100
AcDb2dVertex
 10
872.2534127862108
 20
121.6071636500015
 30
0.0
 70
     8
  0
VERTEX
  5
B3
330
3C
100
AcDbEntity
  8
KRABICKA
 62
     9
100
AcDbVertex
100
AcDb2dVertex
 10
872.4080957132288
 20
121.6404474300309
 30
0.0
 70
     8
  0
VERTEX
  5
B4
330
3C
100
AcDbEntity
  8
KRABICKA
 62
     9
100
AcDbVertex
100
AcDb2dVertex
 10
872.5726624802
 20
121.6723377978899
 30
0.0
 70
     8
  0
VERTEX
  5
B5
330
3C
100
AcDbEntity
  8
KRABICKA
 62
     9
100
AcDbVertex
100
AcDb2dVertex
 10
872.7489956779564
 20
121.7032118476152
 30
0.0
 70
     8
  0
VERTEX
  5
B6
330
3C
100
AcDbEntity
  8
KRABICKA
 62
     9
100
AcDbVertex
100
AcDb2dVertex
 10
872.9389778973306
 20
121.7334466732436
 30
0.0
 70
     8
  0
VERTEX
  5
B7
330
3C
100
AcDbEntity
  8
KRABICKA
 62
     9
100
AcDbVertex
100
AcDb2dVertex
 10
873.1444788247499
 20
121.7633898883109
 30
0.0
 70
     8
  0
VERTEX
  5
B8
330
3C
100
AcDbEntity
  8
KRABICKA
 62
     9
100
AcDbVertex
100
AcDb2dVertex
 10
873.3673165290211
 20
121.7932711843489
 30
0.0
 70
     8
  0
VERTEX
  5
B9
330
3C
100
AcDbEntity
  8
KRABICKA
 62
     9
100
AcDbVertex
100
AcDb2dVertex
 10
873.6092961745457
 20
121.8232907723884
 30
0.0
 70
     8
  0
VERTEX
  5
BA
330
3C
100
AcDbEntity
  8
KRABICKA
 62
     9
100
AcDbVertex
100
AcDb2dVertex
 10
873.8722229257254
 20
121.8536488634603
 30
0.0
 70
     8
  0
VERTEX
  5
BB
330
3C
100
AcDbEntity
  8
KRABICKA
 62
     9
100
AcDbVertex
100
AcDb2dVertex
 10
874.1579019469616
 20
121.8845456685955
 30
0.0
 70
     8
  0
VERTEX
  5
BC
330
3C
100
AcDbEntity
  8
KRABICKA
 62
     9
100
AcDbVertex
100
AcDb2dVertex
 10
874.4681384026565
 20
121.9161813988249
 30
0.0
 70
     8
  0
VERTEX
  5
BD
330
3C
100
AcDbEntity
  8
KRABICKA
 62
     9
100
AcDbVertex
100
AcDb2dVertex
 10
874.8047374572108
 20
121.9487562651794
 30
0.0
 70
     8
  0
VERTEX
  5
BE
330
3C
100
AcDbEntity
  8
KRABICKA
 62
     9
100
AcDbVertex
100
AcDb2dVertex
 10
875.169504275027
 20
121.9824704786897
 30
0.0
 70
     8
  0
VERTEX
  5
BF
330
3C
100
AcDbEntity
  8
KRABICKA
 62
     9
100
AcDbVertex
100
AcDb2dVertex
 10
875.5629819851295
 20
122.01740093583
 30
0.0
 70
     8
  0
VERTEX
  5
C0
330
3C
100
AcDbEntity
  8
KRABICKA
 62
     9
100
AcDbVertex
100
AcDb2dVertex
 10
875.9806655750356
 20
122.0531312748461
 30
0.0
 70
     8
  0
VERTEX
  5
C1
330
3C
100
AcDbEntity
  8
KRABICKA
 62
     9
100
AcDbVertex
100
AcDb2dVertex
 10
876.4167879968864
 20
122.0891218194273
 30
0.0
 70
     8
  0
VERTEX
  5
C2
330
3C
100
AcDbEntity
  8
KRABICKA
 62
     9
100
AcDbVertex
100
AcDb2dVertex
 10
876.865582202822
 20
122.1248328932627
 30
0.0
 70
     8
  0
VERTEX
  5
C3
330
3C
100
AcDbEntity
  8
KRABICKA
 62
     9
100
AcDbVertex
100
AcDb2dVertex
 10
877.3212811449836
 20
122.1597248200416
 30
0.0
 70
     8
  0
VERTEX
  5
C4
330
3C
100
AcDbEntity
  8
KRABICKA
 62
     9
100
AcDbVertex
100
AcDb2dVertex
 10
877.7781177755116
 20
122.193257923453
 30
0.0
 70
     8
  0
VERTEX
  5
C5
330
3C
100
AcDbEntity
  8
KRABICKA
 62
     9
100
AcDbVertex
100
AcDb2dVertex
 10
878.2303250465465
 20
122.224892527186
 30
0.0
 70
     8
  0
VERTEX
  5
C6
330
3C
100
AcDbEntity
  8
KRABICKA
 62
     9
100
AcDbVertex
100
AcDb2dVertex
 10
878.6721359102294
 20
122.25408895493
 30
0.0
 70
     8
  0
VERTEX
  5
C7
330
3C
100
AcDbEntity
  8
KRABICKA
 62
     9
100
AcDbVertex
100
AcDb2dVertex
 10
879.0997030105762
 20
122.2804217112393
 30
0.0
 70
     8
  0
VERTEX
  5
C8
330
3C
100
AcDbEntity
  8
KRABICKA
 62
     9
100
AcDbVertex
100
AcDb2dVertex
 10
879.5168577591073
 20
122.3039220241302
 30
0.0
 70
     8
  0
VERTEX
  5
C9
330
3C
100
AcDbEntity
  8
KRABICKA
 62
     9
100
AcDbVertex
100
AcDb2dVertex
 10
879.9293512592184
 20
122.3247353024844
 30
0.0
 70
     8
  0
VERTEX
  5
CA
330
3C
100
AcDbEntity
  8
KRABICKA
 62
     9
100
AcDbVertex
100
AcDb2dVertex
 10
880.3429346143053
 20
122.3430069551833
 30
0.0
 70
     8
  0
VERTEX
  5
CB
330
3C
100
AcDbEntity
  8
KRABICKA
 62
     9
100
AcDbVertex
100
AcDb2dVertex
 10
880.7633589277639
 20
122.3588823911085
 30
0.0
 70
     8
  0
VERTEX
  5
CC
330
3C
100
AcDbEntity
  8
KRABICKA
 62
     9
100
AcDbVertex
100
AcDb2dVertex
 10
881.1963753029898
 20
122.3725070191418
 30
0.0
 70
     8
  0
VERTEX
  5
CD
330
3C
100
AcDbEntity
  8
KRABICKA
 62
     9
100
AcDbVertex
100
AcDb2dVertex
 10
881.6477348433791
 20
122.3840262481646
 30
0.0
 70
     8
  0
VERTEX
  5
CE
330
3C
100
AcDbEntity
  8
KRABICKA
 62
     9
100
AcDbVertex
100
AcDb2dVertex
 10
882.1231886523273
 20
122.3935854870585
 30
0.0
 70
     8
  0
VERTEX
  5
CF
330
3C
100
AcDbEntity
  8
KRABICKA
 62
     9
100
AcDbVertex
100
AcDb2dVertex
 10
882.6269075374154
 20
122.4013365814359
 30
0.0
 70
     8
  0
VERTEX
  5
D0
330
3C
100
AcDbEntity
  8
KRABICKA
 62
     9
100
AcDbVertex
100
AcDb2dVertex
 10
883.156741122964
 20
122.4074571238324
 30
0.0
 70
     8
  0
VERTEX
  5
D1
330
3C
100
AcDbEntity
  8
KRABICKA
 62
     9
100
AcDbVertex
100
AcDb2dVertex
 10
883.7089587374787
 20
122.4121311435143
 30
0.0
 70
     8
  0
VERTEX
  5
D2
330
3C
100
AcDbEntity
  8
KRABICKA
 62
     9
100
AcDbVertex
100
AcDb2dVertex
 10
884.2798297094654
 20
122.4155426697477
 30
0.0
 70
     8
  0
VERTEX
  5
D3
330
3C
100
AcDbEntity
  8
KRABICKA
 62
     9
100
AcDbVertex
100
AcDb2dVertex
 10
884.8656233674294
 20
122.4178757317991
 30
0.0
 70
     8
  0
VERTEX
  5
D4
330
3C
100
AcDbEntity
  8
KRABICKA
 62
     9
100
AcDbVertex
100
AcDb2dVertex
 10
885.4626090398765
 20
122.4193143589347
 30
0.0
 70
     8
  0
VERTEX
  5
D5
330
3C
100
AcDbEntity
  8
KRABICKA
 62
     9
100
AcDbVertex
100
AcDb2dVertex
 10
886.0670560553124
 20
122.4200425804207
 30
0.0
 70
     8
  0
VERTEX
  5
D6
330
3C
100
AcDbEntity
  8
KRABICKA
 62
     9
100
AcDbVertex
100
AcDb2dVertex
 10
886.6752337422425
 20
122.4202444255236
 30
0.0
 70
     8
  0
VERTEX
  5
D7
330
3C
100
AcDbEntity
  8
KRABICKA
 62
     9
100
AcDbVertex
100
AcDb2dVertex
 10
887.2834114291727
 20
122.4200425804207
 30
0.0
 70
     8
  0
VERTEX
  5
D8
330
3C
100
AcDbEntity
  8
KRABICKA
 62
     9
100
AcDbVertex
100
AcDb2dVertex
 10
887.8878584446086
 20
122.4193143589347
 30
0.0
 70
     8
  0
VERTEX
  5
D9
330
3C
100
AcDbEntity
  8
KRABICKA
 62
     9
100
AcDbVertex
100
AcDb2dVertex
 10
888.4848441170557
 20
122.4178757317991
 30
0.0
 70
     8
  0
VERTEX
  5
DA
330
3C
100
AcDbEntity
  8
KRABICKA
 62
     9
100
AcDbVertex
100
AcDb2dVertex
 10
889.0706377750198
 20
122.4155426697477
 30
0.0
 70
     8
  0
VERTEX
  5
DB
330
3C
100
AcDbEntity
  8
KRABICKA
 62
     9
100
AcDbVertex
100
AcDb2dVertex
 10
889.6415087470064
 20
122.4121311435143
 30
0.0
 70
     8
  0
VERTEX
  5
DC
330
3C
100
AcDbEntity
  8
KRABICKA
 62
     9
100
AcDbVertex
100
AcDb2dVertex
 10
890.1937263615211
 20
122.4074571238324
 30
0.0
 70
     8
  0
VERTEX
  5
DD
330
3C
100
AcDbEntity
  8
KRABICKA
 62
     9
100
AcDbVertex
100
AcDb2dVertex
 10
890.7235599470698
 20
122.4013365814359
 30
0.0
 70
     8
  0
VERTEX
  5
DE
330
3C
100
AcDbEntity
  8
KRABICKA
 62
     9
100
AcDbVertex
100
AcDb2dVertex
 10
891.227278832158
 20
122.3935854870585
 30
0.0
 70
     8
  0
VERTEX
  5
DF
330
3C
100
AcDbEntity
  8
KRABICKA
 62
     9
100
AcDbVertex
100
AcDb2dVertex
 10
891.7027326411062
 20
122.3840262481646
 30
0.0
 70
     8
  0
VERTEX
  5
E0
330
3C
100
AcDbEntity
  8
KRABICKA
 62
     9
100
AcDbVertex
100
AcDb2dVertex
 10
892.1540921814953
 20
122.3725070191418
 30
0.0
 70
     8
  0
VERTEX
  5
E1
330
3C
100
AcDbEntity
  8
KRABICKA
 62
     9
100
AcDbVertex
100
AcDb2dVertex
 10
892.5871085567212
 20
122.3588823911085
 30
0.0
 70
     8
  0
VERTEX
  5
E2
330
3C
100
AcDbEntity
  8
KRABICKA
 62
     9
100
AcDbVertex
100
AcDb2dVertex
 10
893.0075328701798
 20
122.3430069551833
 30
0.0
 70
     8
  0
VERTEX
  5
E3
330
3C
100
AcDbEntity
  8
KRABICKA
 62
     9
100
AcDbVertex
100
AcDb2dVertex
 10
893.4211162252667
 20
122.3247353024844
 30
0.0
 70
     8
  0
VERTEX
  5
E4
330
3C
100
AcDbEntity
  8
KRABICKA
 62
     9
100
AcDbVertex
100
AcDb2dVertex
 10
893.8336097253777
 20
122.3039220241302
 30
0.0
 70
     8
  0
VERTEX
  5
E5
330
3C
100
AcDbEntity
  8
KRABICKA
 62
     9
100
AcDbVertex
100
AcDb2dVertex
 10
894.2507644739089
 20
122.2804217112393
 30
0.0
 70
     8
  0
VERTEX
  5
E6
330
3C
100
AcDbEntity
  8
KRABICKA
 62
     9
100
AcDbVertex
100
AcDb2dVertex
 10
894.6783315742559
 20
122.25408895493
 30
0.0
 70
     8
  0
VERTEX
  5
E7
330
3C
100
AcDbEntity
  8
KRABICKA
 62
     9
100
AcDbVertex
100
AcDb2dVertex
 10
895.1201424379386
 20
122.224892527186
 30
0.0
 70
     8
  0
VERTEX
  5
E8
330
3C
100
AcDbEntity
  8
KRABICKA
 62
     9
100
AcDbVertex
100
AcDb2dVertex
 10
895.5723497089733
 20
122.193257923453
 30
0.0
 70
     8
  0
VERTEX
  5
E9
330
3C
100
AcDbEntity
  8
KRABICKA
 62
     9
100
AcDbVertex
100
AcDb2dVertex
 10
896.0291863395013
 20
122.1597248200416
 30
0.0
 70
     8
  0
VERTEX
  5
EA
330
3C
100
AcDbEntity
  8
KRABICKA
 62
     9
100
AcDbVertex
100
AcDb2dVertex
 10
896.4848852816629
 20
122.1248328932627
 30
0.0
 70
     8
  0
VERTEX
  5
EB
330
3C
100
AcDbEntity
  8
KRABICKA
 62
     9
100
AcDbVertex
100
AcDb2dVertex
 10
896.9336794875987
 20
122.0891218194273
 30
0.0
 70
     8
  0
VERTEX
  5
EC
330
3C
100
AcDbEntity
  8
KRABICKA
 62
     9
100
AcDbVertex
100
AcDb2dVertex
 10
897.3698019094495
 20
122.0531312748461
 30
0.0
 70
     8
  0
VERTEX
  5
ED
330
3C
100
AcDbEntity
  8
KRABICKA
 62
     9
100
AcDbVertex
100
AcDb2dVertex
 10
897.7874854993556
 20
122.01740093583
 30
0.0
 70
     8
  0
VERTEX
  5
EE
330
3C
100
AcDbEntity
  8
KRABICKA
 62
     9
100
AcDbVertex
100
AcDb2dVertex
 10
898.1809632094579
 20
121.9824704786897
 30
0.0
 70
     8
  0
VERTEX
  5
EF
330
3C
100
AcDbEntity
  8
KRABICKA
 62
     9
100
AcDbVertex
100
AcDb2dVertex
 10
898.5457300272742
 20
121.9487562651794
 30
0.0
 70
     8
  0
VERTEX
  5
F0
330
3C
100
AcDbEntity
  8
KRABICKA
 62
     9
100
AcDbVertex
100
AcDb2dVertex
 10
898.8823290818286
 20
121.9161813988249
 30
0.0
 70
     8
  0
VERTEX
  5
F1
330
3C
100
AcDbEntity
  8
KRABICKA
 62
     9
100
AcDbVertex
100
AcDb2dVertex
 10
899.1925655375233
 20
121.8845456685955
 30
0.0
 70
     8
  0
VERTEX
  5
F2
330
3C
100
AcDbEntity
  8
KRABICKA
 62
     9
100
AcDbVertex
100
AcDb2dVertex
 10
899.4782445587597
 20
121.8536488634603
 30
0.0
 70
     8
  0
VERTEX
  5
F3
330
3C
100
AcDbEntity
  8
KRABICKA
 62
     9
100
AcDbVertex
100
AcDb2dVertex
 10
899.7411713099394
 20
121.8232907723884
 30
0.0
 70
     8
  0
VERTEX
  5
F4
330
3C
100
AcDbEntity
  8
KRABICKA
 62
     9
100
AcDbVertex
100
AcDb2dVertex
 10
899.983150955464
 20
121.7932711843489
 30
0.0
 70
     8
  0
VERTEX
  5
F5
330
3C
100
AcDbEntity
  8
KRABICKA
 62
     9
100
AcDbVertex
100
AcDb2dVertex
 10
900.2059886597351
 20
121.7633898883109
 30
0.0
 70
     8
  0
VERTEX
  5
F6
330
3C
100
AcDbEntity
  8
KRABICKA
 62
     9
100
AcDbVertex
100
AcDb2dVertex
 10
900.4114895871543
 20
121.7334466732436
 30
0.0
 70
     8
  0
VERTEX
  5
F7
330
3C
100
AcDbEntity
  8
KRABICKA
 62
     9
100
AcDbVertex
100
AcDb2dVertex
 10
900.6014718065285
 20
121.7032118476152
 30
0.0
 70
     8
  0
VERTEX
  5
F8
330
3C
100
AcDbEntity
  8
KRABICKA
 62
     9
100
AcDbVertex
100
AcDb2dVertex
 10
900.7778050042849
 20
121.6723377978899
 30
0.0
 70
     8
  0
VERTEX
  5
F9
330
3C
100
AcDbEntity
  8
KRABICKA
 62
     9
100
AcDbVertex
100
AcDb2dVertex
 10
900.9423717712561
 20
121.6404474300309
 30
0.0
 70
     8
  0
VERTEX
  5
FA
330
3C
100
AcDbEntity
  8
KRABICKA
 62
     9
100
AcDbVertex
100
AcDb2dVertex
 10
901.0970546982743
 20
121.6071636500015
 30
0.0
 70
     8
  0
VERTEX
  5
FB
330
3C
100
AcDbEntity
  8
KRABICKA
 62
     9
100
AcDbVertex
100
AcDb2dVertex
 10
901.2437363761719
 20
121.572109363765
 30
0.0
 70
     8
  0
VERTEX
  5
FC
330
3C
100
AcDbEntity
  8
KRABICKA
 62
     9
100
AcDbVertex
100
AcDb2dVertex
 10
901.3842993957817
 20
121.5349074772846
 30
0.0
 70
     8
  0
VERTEX
  5
FD
330
3C
100
AcDbEntity
  8
KRABICKA
 62
     9
100
AcDbVertex
100
AcDb2dVertex
 10
901.5206263479358
 20
121.4951808965236
 30
0.0
 70
     8
  0
VERTEX
  5
FE
330
3C
100
AcDbEntity
  8
KRABICKA
 62
     9
100
AcDbVertex
100
AcDb2dVertex
 10
901.6545998234667
 20
121.4525525274453
 30
0.0
 70
     8
  0
VERTEX
  5
FF
330
3C
100
AcDbEntity
  8
KRABICKA
 62
     9
100
AcDbVertex
100
AcDb2dVertex
 10
901.787738751506
 20
121.4067343542728
 30
0.0
 70
     8
  0
VERTEX
  5
100
330
3C
100
AcDbEntity
  8
KRABICKA
 62
     9
100
AcDbVertex
100
AcDb2dVertex
 10
901.920107414382
 20
121.3577946742691
 30
0.0
 70
     8
  0
VERTEX
  5
101
330
3C
100
AcDbEntity
  8
KRABICKA
 62
     9
100
AcDbVertex
100
AcDb2dVertex
 10
902.0514064327219
 20
121.3058908629572
 30
0.0
 70
     8
  0
VERTEX
  5
102
330
3C
100
AcDbEntity
  8
KRABICKA
 62
     9
100
AcDbVertex
100
AcDb2dVertex
 10
902.181336427153
 20
121.2511802958599
 30
0.0
 70
     8
  0
VERTEX
  5
103
330
3C
100
AcDbEntity
  8
KRABICKA
 62
     9
100
AcDbVertex
100
AcDb2dVertex
 10
902.3095980183029
 20
121.1938203485
 30
0.0
 70
     8
  0
VERTEX
  5
104
330
3C
100
AcDbEntity
  8
KRABICKA
 62
     9
100
AcDbVertex
100
AcDb2dVertex
 10
902.4358918267987
 20
121.1339683964005
 30
0.0
 70
     8
  0
VERTEX
  5
105
330
3C
100
AcDbEntity
  8
KRABICKA
 62
     9
100
AcDbVertex
100
AcDb2dVertex
 10
902.5599184732678
 20
121.0717818150843
 30
0.0
 70
     8
  0
VERTEX
  5
106
330
3C
100
AcDbEntity
  8
KRABICKA
 62
     9
100
AcDbVertex
100
AcDb2dVertex
 10
902.6813785783375
 20
121.0074179800742
 30
0.0
 70
     8
  0
VERTEX
  5
107
330
3C
100
AcDbEntity
  8
KRABICKA
 62
     9
100
AcDbVertex
100
AcDb2dVertex
 10
902.8000369572881
 20
120.9409776282239
 30
0.0
 70
     8
  0
VERTEX
  5
108
330
3C
100
AcDbEntity
  8
KRABICKA
 62
     9
100
AcDbVertex
100
AcDb2dVertex
 10
902.9159152040115
 20
120.8723349417097
 30
0.0
 70
     8
  0
VERTEX
  5
109
330
3C
100
AcDbEntity
  8
KRABICKA
 62
     9
100
AcDbVertex
100
AcDb2dVertex
 10
903.0290991070526
 20
120.801307464039
 30
0.0
 70
     8
  0
VERTEX
  5
10A
330
3C
100
AcDbEntity
  8
KRABICKA
 62
     9
100
AcDbVertex
100
AcDb2dVertex
 10
903.1396744549557
 20
120.7277127387188
 30
0.0
 70
     8
  0
VERTEX
  5
10B
330
3C
100
AcDbEntity
  8
KRABICKA
 62
     9
100
AcDbVertex
100
AcDb2dVertex
 10
903.2477270362658
 20
120.6513683092563
 30
0.0
 70
     8
  0
VERTEX
  5
10C
330
3C
100
AcDbEntity
  8
KRABICKA
 62
     9
100
AcDbVertex
100
AcDb2dVertex
 10
903.3533426395278
 20
120.5720917191587
 30
0.0
 70
     8
  0
VERTEX
  5
10D
330
3C
100
AcDbEntity
  8
KRABICKA
 62
     9
100
AcDbVertex
100
AcDb2dVertex
 10
903.4566070532862
 20
120.489700511933
 30
0.0
 70
     8
  0
VERTEX
  5
10E
330
3C
100
AcDbEntity
  8
KRABICKA
 62
     9
100
AcDbVertex
100
AcDb2dVertex
 10
903.5576060660861
 20
120.4040122310866
 30
0.0
 70
     8
  0
VERTEX
  5
10F
330
3C
100
AcDbEntity
  8
KRABICKA
 62
     9
100
AcDbVertex
100
AcDb2dVertex
 10
903.6563379425771
 20
120.3148290545747
 30
0.0
 70
     8
  0
VERTEX
  5
110
330
3C
100
AcDbEntity
  8
KRABICKA
 62
     9
100
AcDbVertex
100
AcDb2dVertex
 10
903.7524508518302
 20
120.2218916981446
 30
0.0
 70
     8
  0
VERTEX
  5
111
330
3C
100
AcDbEntity
  8
KRABICKA
 62
     9
100
AcDbVertex
100
AcDb2dVertex
 10
903.8455054390208
 20
120.1249255119921
 30
0.0
 70
     8
  0
VERTEX
  5
112
330
3C
100
AcDbEntity
  8
KRABICKA
 62
     9
100
AcDbVertex
100
AcDb2dVertex
 10
903.9350623493248
 20
120.0236558463127
 30
0.0
 70
     8
  0
VERTEX
  5
113
330
3C
100
AcDbEntity
  8
KRABICKA
 62
     9
100
AcDbVertex
100
AcDb2dVertex
 10
904.0206822279186
 20
119.917808051302
 30
0.0
 70
     8
  0
VERTEX
  5
114
330
3C
100
AcDbEntity
  8
KRABICKA
 62
     9
100
AcDbVertex
100
AcDb2dVertex
 10
904.1019257199772
 20
119.8071074771555
 30
0.0
 70
     8
  0
VERTEX
  5
115
330
3C
100
AcDbEntity
  8
KRABICKA
 62
     9
100
AcDbVertex
100
AcDb2dVertex
 10
904.1783534706771
 20
119.6912794740689
 30
0.0
 70
     8
  0
VERTEX
  5
116
330
3C
100
AcDbEntity
  8
KRABICKA
 62
     9
100
AcDbVertex
100
AcDb2dVertex
 10
904.2495261251939
 20
119.5700493922377
 30
0.0
 70
     8
  0
VERTEX
  5
117
330
3C
100
AcDbEntity
  8
KRABICKA
 62
     9
100
AcDbVertex
100
AcDb2dVertex
 10
904.3150773846045
 20
119.4395276403397
 30
0.0
 70
     8
  0
VERTEX
  5
118
330
3C
100
AcDbEntity
  8
KRABICKA
 62
     9
100
AcDbVertex
100
AcDb2dVertex
 10
904.3749331735902
 20
119.2813648609808
 30
0.0
 70
     8
  0
VERTEX
  5
119
330
3C
100
AcDbEntity
  8
KRABICKA
 62
     9
100
AcDbVertex
100
AcDb2dVertex
 10
904.4290924727331
 20
119.0735967552493
 30
0.0
 70
     8
  0
VERTEX
  5
11A
330
3C
100
AcDbEntity
  8
KRABICKA
 62
     9
100
AcDbVertex
100
AcDb2dVertex
 10
904.477554262616
 20
118.7942590242335
 30
0.0
 70
     8
  0
VERTEX
  5
11B
330
3C
100
AcDbEntity
  8
KRABICKA
 62
     9
100
AcDbVertex
100
AcDb2dVertex
 10
904.520317523821
 20
118.4213873690215
 30
0.0
 70
     8
  0
VERTEX
  5
11C
330
3C
100
AcDbEntity
  8
KRABICKA
 62
     9
100
AcDbVertex
100
AcDb2dVertex
 10
904.5573812369303
 20
117.9330174907015
 30
0.0
 70
     8
  0
VERTEX
  5
11D
330
3C
100
AcDbEntity
  8
KRABICKA
 62
     9
100
AcDbVertex
100
AcDb2dVertex
 10
904.5887443825264
 20
117.3071850903618
 30
0.0
 70
     8
  0
VERTEX
  5
11E
330
3C
100
AcDbEntity
  8
KRABICKA
 62
     9
100
AcDbVertex
100
AcDb2dVertex
 10
904.6144059411918
 20
116.5219258690905
 30
0.0
 70
     8
  0
VERTEX
  5
11F
330
3C
100
AcDbEntity
  8
KRABICKA
 62
     9
100
AcDbVertex
100
AcDb2dVertex
 10
904.6344838677105
 20
115.5627152261245
 30
0.0
 70
     8
  0
VERTEX
  5
120
330
3C
100
AcDbEntity
  8
KRABICKA
 62
     9
100
AcDbVertex
100
AcDb2dVertex
 10
904.6495720136743
 20
114.4447873532956
 30
0.0
 70
     8
  0
VERTEX
  5
121
330
3C
100
AcDbEntity
  8
KRABICKA
 62
     9
100
AcDbVertex
100
AcDb2dVertex
 10
904.6603832048766
 20
113.1908161405842
 30
0.0
 70
     8
  0
VERTEX
  5
122
330
3C
100
AcDbEntity
  8
KRABICKA
 62
     9
100
AcDbVertex
100
AcDb2dVertex
 10
904.6676302671112
 20
111.8234754779707
 30
0.0
 70
     8
  0
VERTEX
  5
123
330
3C
100
AcDbEntity
  8
KRABICKA
 62
     9
100
AcDbVertex
100
AcDb2dVertex
 10
904.6720260261716
 20
110.3654392554355
 30
0.0
 70
     8
  0
VERTEX
  5
124
330
3C
100
AcDbEntity
  8
KRABICKA
 62
     9
100
AcDbVertex
100
AcDb2dVertex
 10
904.6742833078511
 20
108.839381362959
 30
0.0
 70
     8
  0
VERTEX
  5
125
330
3C
100
AcDbEntity
  8
KRABICKA
 62
     9
100
AcDbVertex
100
AcDb2dVertex
 10
904.6751149379435
 20
107.2679756905217
 30
0.0
 70
     8
  0
VERTEX
  5
126
330
3C
100
AcDbEntity
  8
KRABICKA
 62
     9
100
AcDbVertex
100
AcDb2dVertex
 10
904.6752337422427
 20
105.673896128104
 30
0.0
 70
     8
  0
VERTEX
  5
127
330
3C
100
AcDbEntity
  8
KRABICKA
 62
     9
100
AcDbVertex
100
AcDb2dVertex
 10
904.6751149379435
 20
104.0798165656863
 30
0.0
 70
     8
  0
VERTEX
  5
128
330
3C
100
AcDbEntity
  8
KRABICKA
 62
     9
100
AcDbVertex
100
AcDb2dVertex
 10
904.6742833078511
 20
102.508410893249
 30
0.0
 70
     8
  0
VERTEX
  5
129
330
3C
100
AcDbEntity
  8
KRABICKA
 62
     9
100
AcDbVertex
100
AcDb2dVertex
 10
904.6720260261716
 20
100.9823530007725
 30
0.0
 70
     8
  0
VERTEX
  5
12A
330
3C
100
AcDbEntity
  8
KRABICKA
 62
     9
100
AcDbVertex
100
AcDb2dVertex
 10
904.6676302671112
 20
99.52431677823739
 30
0.0
 70
     8
  0
VERTEX
  5
12B
330
3C
100
AcDbEntity
  8
KRABICKA
 62
     9
100
AcDbVertex
100
AcDb2dVertex
 10
904.6603832048766
 20
98.15697611562388
 30
0.0
 70
     8
  0
VERTEX
  5
12C
330
3C
100
AcDbEntity
  8
KRABICKA
 62
     9
100
AcDbVertex
100
AcDb2dVertex
 10
904.6495720136743
 20
96.90300490291244
 30
0.0
 70
     8
  0
VERTEX
  5
12D
330
3C
100
AcDbEntity
  8
KRABICKA
 62
     9
100
AcDbVertex
100
AcDb2dVertex
 10
904.6344838677105
 20
95.78507703008355
 30
0.0
 70
     8
  0
VERTEX
  5
12E
330
3C
100
AcDbEntity
  8
KRABICKA
 62
     9
100
AcDbVertex
100
AcDb2dVertex
 10
904.6144059411918
 20
94.82586638711756
 30
0.0
 70
     8
  0
VERTEX
  5
12F
330
3C
100
AcDbEntity
  8
KRABICKA
 62
     9
100
AcDbVertex
100
AcDb2dVertex
 10
904.5887443825264
 20
94.04060716584627
 30
0.0
 70
     8
  0
VERTEX
  5
130
330
3C
100
AcDbEntity
  8
KRABICKA
 62
     9
100
AcDbVertex
100
AcDb2dVertex
 10
904.5573812369303
 20
93.41477476550654
 30
0.0
 70
     8
  0
VERTEX
  5
131
330
3C
100
AcDbEntity
  8
KRABICKA
 62
     9
100
AcDbVertex
100
AcDb2dVertex
 10
904.520317523821
 20
92.92640488718655
 30
0.0
 70
     8
  0
VERTEX
  5
132
330
3C
100
AcDbEntity
  8
KRABICKA
 62
     9
100
AcDbVertex
100
AcDb2dVertex
 10
904.477554262616
 20
92.55353323197454
 30
0.0
 70
     8
  0
VERTEX
  5
133
330
3C
100
AcDbEntity
  8
KRABICKA
 62
     9
100
AcDbVertex
100
AcDb2dVertex
 10
904.4290924727333
 20
92.27419550095872
 30
0.0
 70
     8
  0
VERTEX
  5
134
330
3C
100
AcDbEntity
  8
KRABICKA
 62
     9
100
AcDbVertex
100
AcDb2dVertex
 10
904.3749331735902
 20
92.06642739522726
 30
0.0
 70
     8
  0
VERTEX
  5
135
330
3C
100
AcDbEntity
  8
KRABICKA
 62
     9
100
AcDbVertex
100
AcDb2dVertex
 10
904.3150773846045
 20
91.90826461586841
 30
0.0
 70
     8
  0
VERTEX
  5
136
330
3C
100
AcDbEntity
  8
KRABICKA
 62
     9
100
AcDbVertex
100
AcDb2dVertex
 10
904.2495261251939
 20
91.77774286397033
 30
0.0
 70
     8
  0
VERTEX
  5
137
330
3C
100
AcDbEntity
  8
KRABICKA
 62
     9
100
AcDbVertex
100
AcDb2dVertex
 10
904.1783534706771
 20
91.65651278213914
 30
0.0
 70
     8
  0
VERTEX
  5
138
330
3C
100
AcDbEntity
  8
KRABICKA
 62
     9
100
AcDbVertex
100
AcDb2dVertex
 10
904.1019257199772
 20
91.54068477905255
 30
0.0
 70
     8
  0
VERTEX
  5
139
330
3C
100
AcDbEntity
  8
KRABICKA
 62
     9
100
AcDbVertex
100
AcDb2dVertex
 10
904.0206822279186
 20
91.42998420490608
 30
0.0
 70
     8
  0
VERTEX
  5
13A
330
3C
100
AcDbEntity
  8
KRABICKA
 62
     9
100
AcDbVertex
100
AcDb2dVertex
 10
903.9350623493248
 20
91.32413640989538
 30
0.0
 70
     8
  0
VERTEX
  5
13B
330
3C
100
AcDbEntity
  8
KRABICKA
 62
     9
100
AcDbVertex
100
AcDb2dVertex
 10
903.8455054390208
 20
91.22286674421596
 30
0.0
 70
     8
  0
VERTEX
  5
13C
330
3C
100
AcDbEntity
  8
KRABICKA
 62
     9
100
AcDbVertex
100
AcDb2dVertex
 10
903.7524508518302
 20
91.12590055806345
 30
0.0
 70
     8
  0
VERTEX
  5
13D
330
3C
100
AcDbEntity
  8
KRABICKA
 62
     9
100
AcDbVertex
100
AcDb2dVertex
 10
903.6563379425771
 20
91.03296320163341
 30
0.0
 70
     8
  0
VERTEX
  5
13E
330
3C
100
AcDbEntity
  8
KRABICKA
 62
     9
100
AcDbVertex
100
AcDb2dVertex
 10
903.5576060660861
 20
90.94378002512144
 30
0.0
 70
     8
  0
VERTEX
  5
13F
330
3C
100
AcDbEntity
  8
KRABICKA
 62
     9
100
AcDbVertex
100
AcDb2dVertex
 10
903.4566070532862
 20
90.85809174427504
 30
0.0
 70
     8
  0
VERTEX
  5
140
330
3C
100
AcDbEntity
  8
KRABICKA
 62
     9
100
AcDbVertex
100
AcDb2dVertex
 10
903.3533426395278
 20
90.77570053704944
 30
0.0
 70
     8
  0
VERTEX
  5
141
330
3C
100
AcDbEntity
  8
KRABICKA
 62
     9
100
AcDbVertex
100
AcDb2dVertex
 10
903.2477270362658
 20
90.69642394695177
 30
0.0
 70
     8
  0
VERTEX
  5
142
330
3C
100
AcDbEntity
  8
KRABICKA
 62
     9
100
AcDbVertex
100
AcDb2dVertex
 10
903.1396744549557
 20
90.62007951748928
 30
0.0
 70
     8
  0
VERTEX
  5
143
330
3C
100
AcDbEntity
  8
KRABICKA
 62
     9
100
AcDbVertex
100
AcDb2dVertex
 10
903.0290991070526
 20
90.54648479216906
 30
0.0
 70
     8
  0
VERTEX
  5
144
330
3C
100
AcDbEntity
  8
KRABICKA
 62
     9
100
AcDbVertex
100
AcDb2dVertex
 10
902.9159152040115
 20
90.47545731449833
 30
0.0
 70
     8
  0
VERTEX
  5
145
330
3C
100
AcDbEntity
  8
KRABICKA
 62
     9
100
AcDbVertex
100
AcDb2dVertex
 10
902.8000369572881
 20
90.40681462798421
 30
0.0
 70
     8
  0
VERTEX
  5
146
330
3C
100
AcDbEntity
  8
KRABICKA
 62
     9
100
AcDbVertex
100
AcDb2dVertex
 10
902.6813785783375
 20
90.34037427613387
 30
0.0
 70
     8
  0
VERTEX
  5
147
330
3C
100
AcDbEntity
  8
KRABICKA
 62
     9
100
AcDbVertex
100
AcDb2dVertex
 10
902.5599184732678
 20
90.27601044112378
 30
0.0
 70
     8
  0
VERTEX
  5
148
330
3C
100
AcDbEntity
  8
KRABICKA
 62
     9
100
AcDbVertex
100
AcDb2dVertex
 10
902.4358918267987
 20
90.21382385980757
 30
0.0
 70
     8
  0
VERTEX
  5
149
330
3C
100
AcDbEntity
  8
KRABICKA
 62
     9
100
AcDbVertex
100
AcDb2dVertex
 10
902.3095980183029
 20
90.15397190770807
 30
0.0
 70
     8
  0
VERTEX
  5
14A
330
3C
100
AcDbEntity
  8
KRABICKA
 62
     9
100
AcDbVertex
100
AcDb2dVertex
 10
902.181336427153
 20
90.09661196034821
 30
0.0
 70
     8
  0
VERTEX
  5
14B
330
3C
100
AcDbEntity
  8
KRABICKA
 62
     9
100
AcDbVertex
100
AcDb2dVertex
 10
902.0514064327219
 20
90.04190139325087
 30
0.0
 70
     8
  0
VERTEX
  5
14C
330
3C
100
AcDbEntity
  8
KRABICKA
 62
     9
100
AcDbVertex
100
AcDb2dVertex
 10
901.920107414382
 20
89.98999758193892
 30
0.0
 70
     8
  0
VERTEX
  5
14D
330
3C
100
AcDbEntity
  8
KRABICKA
 62
     9
100
AcDbVertex
100
AcDb2dVertex
 10
901.787738751506
 20
89.94105790193527
 30
0.0
 70
     8
  0
VERTEX
  5
14E
330
3C
100
AcDbEntity
  8
KRABICKA
 62
     9
100
AcDbVertex
100
AcDb2dVertex
 10
901.6545998234667
 20
89.89523972876282
 30
0.0
 70
     8
  0
VERTEX
  5
14F
330
3C
100
AcDbEntity
  8
KRABICKA
 62
     9
100
AcDbVertex
100
AcDb2dVertex
 10
901.5206263479358
 20
89.85261135968448
 30
0.0
 70
     8
  0
VERTEX
  5
150
330
3C
100
AcDbEntity
  8
KRABICKA
 62
     9
100
AcDbVertex
100
AcDb2dVertex
 10
901.3842993957817
 20
89.81288477892352
 30
0.0
 70
     8
  0
VERTEX
  5
151
330
3C
100
AcDbEntity
  8
KRABICKA
 62
     9
100
AcDbVertex
100
AcDb2dVertex
 10
901.2437363761719
 20
89.77568289244311
 30
0.0
 70
     8
  0
VERTEX
  5
152
330
3C
100
AcDbEntity
  8
KRABICKA
 62
     9
100
AcDbVertex
100
AcDb2dVertex
 10
901.0970546982743
 20
89.7406286062066
 30
0.0
 70
     8
  0
VERTEX
  5
153
330
3C
100
AcDbEntity
  8
KRABICKA
 62
     9
100
AcDbVertex
100
AcDb2dVertex
 10
900.9423717712561
 20
89.7073448261772
 30
0.0
 70
     8
  0
VERTEX
  5
154
330
3C
100
AcDbEntity
  8
KRABICKA
 62
     9
100
AcDbVertex
100
AcDb2dVertex
 10
900.7778050042849
 20
89.67545445831822
 30
0.0
 70
     8
  0
VERTEX
  5
155
330
3C
100
AcDbEntity
  8
KRABICKA
 62
     9
100
AcDbVertex
100
AcDb2dVertex
 10
900.6014718065285
 20
89.64458040859287
 30
0.0
 70
     8
  0
VERTEX
  5
156
330
3C
100
AcDbEntity
  8
KRABICKA
 62
     9
100
AcDbVertex
100
AcDb2dVertex
 10
900.4114895871543
 20
89.61434558296446
 30
0.0
 70
     8
  0
VERTEX
  5
157
330
3C
100
AcDbEntity
  8
KRABICKA
 62
     9
100
AcDbVertex
100
AcDb2dVertex
 10
900.2059886597351
 20
89.58440236789718
 30
0.0
 70
     8
  0
VERTEX
  5
158
330
3C
100
AcDbEntity
  8
KRABICKA
 62
     9
100
AcDbVertex
100
AcDb2dVertex
 10
899.983150955464
 20
89.55452107185923
 30
0.0
 70
     8
  0
VERTEX
  5
159
330
3C
100
AcDbEntity
  8
KRABICKA
 62
     9
100
AcDbVertex
100
AcDb2dVertex
 10
899.7411713099394
 20
89.52450148381974
 30
0.0
 70
     8
  0
VERTEX
  5
15A
330
3C
100
AcDbEntity
  8
KRABICKA
 62
     9
100
AcDbVertex
100
AcDb2dVertex
 10
899.4782445587597
 20
89.49414339274779
 30
0.0
 70
     8
  0
VERTEX
  5
15B
330
3C
100
AcDbEntity
  8
KRABICKA
 62
     9
100
AcDbVertex
100
AcDb2dVertex
 10
899.1925655375233
 20
89.46324658761254
 30
0.0
 70
     8
  0
VERTEX
  5
15C
330
3C
100
AcDbEntity
  8
KRABICKA
 62
     9
100
AcDbVertex
100
AcDb2dVertex
 10
898.8823290818286
 20
89.43161085738314
 30
0.0
 70
     8
  0
VERTEX
  5
15D
330
3C
100
AcDbEntity
  8
KRABICKA
 62
     9
100
AcDbVertex
100
AcDb2dVertex
 10
898.5457300272742
 20
89.39903599102867
 30
0.0
 70
     8
  0
VERTEX
  5
15E
330
3C
100
AcDbEntity
  8
KRABICKA
 62
     9
100
AcDbVertex
100
AcDb2dVertex
 10
898.1809632094579
 20
89.36532177751832
 30
0.0
 70
     8
  0
VERTEX
  5
15F
330
3C
100
AcDbEntity
  8
KRABICKA
 62
     9
100
AcDbVertex
100
AcDb2dVertex
 10
897.7874854993556
 20
89.3303913203781
 30
0.0
 70
     8
  0
VERTEX
  5
160
330
3C
100
AcDbEntity
  8
KRABICKA
 62
     9
100
AcDbVertex
100
AcDb2dVertex
 10
897.3698019094495
 20
89.29466098136201
 30
0.0
 70
     8
  0
VERTEX
  5
161
330
3C
100
AcDbEntity
  8
KRABICKA
 62
     9
100
AcDbVertex
100
AcDb2dVertex
 10
896.9336794875987
 20
89.2586704367808
 30
0.0
 70
     8
  0
VERTEX
  5
162
330
3C
100
AcDbEntity
  8
KRABICKA
 62
     9
100
AcDbVertex
100
AcDb2dVertex
 10
896.4848852816629
 20
89.22295936294535
 30
0.0
 70
     8
  0
VERTEX
  5
163
330
3C
100
AcDbEntity
  8
KRABICKA
 62
     9
100
AcDbVertex
100
AcDb2dVertex
 10
896.0291863395013
 20
89.1880674361665
 30
0.0
 70
     8
  0
VERTEX
  5
164
330
3C
100
AcDbEntity
  8
KRABICKA
 62
     9
100
AcDbVertex
100
AcDb2dVertex
 10
895.5723497089733
 20
89.1545343327551
 30
0.0
 70
     8
  0
VERTEX
  5
165
330
3C
100
AcDbEntity
  8
KRABICKA
 62
     9
100
AcDbVertex
100
AcDb2dVertex
 10
895.1201424379386
 20
89.12289972902204
 30
0.0
 70
     8
  0
VERTEX
  5
166
330
3C
100
AcDbEntity
  8
KRABICKA
 62
     9
100
AcDbVertex
100
AcDb2dVertex
 10
894.6783315742559
 20
89.09370330127812
 30
0.0
 70
     8
  0
VERTEX
  5
167
330
3C
100
AcDbEntity
  8
KRABICKA
 62
     9
100
AcDbVertex
100
AcDb2dVertex
 10
894.2507644739089
 20
89.06737054496876
 30
0.0
 70
     8
  0
VERTEX
  5
168
330
3C
100
AcDbEntity
  8
KRABICKA
 62
     9
100
AcDbVertex
100
AcDb2dVertex
 10
893.8336097253777
 20
89.04387023207783
 30
0.0
 70
     8
  0
VERTEX
  5
169
330
3C
100
AcDbEntity
  8
KRABICKA
 62
     9
100
AcDbVertex
100
AcDb2dVertex
 10
893.4211162252667
 20
89.02305695372371
 30
0.0
 70
     8
  0
VERTEX
  5
16A
330
3C
100
AcDbEntity
  8
KRABICKA
 62
     9
100
AcDbVertex
100
AcDb2dVertex
 10
893.0075328701798
 20
89.0047853010248
 30
0.0
 70
     8
  0
VERTEX
  5
16B
330
3C
100
AcDbEntity
  8
KRABICKA
 62
     9
100
AcDbVertex
100
AcDb2dVertex
 10
892.5871085567212
 20
88.98890986509954
 30
0.0
 70
     8
  0
VERTEX
  5
16C
330
3C
100
AcDbEntity
  8
KRABICKA
 62
     9
100
AcDbVertex
100
AcDb2dVertex
 10
892.1540921814953
 20
88.97528523706631
 30
0.0
 70
     8
  0
VERTEX
  5
16D
330
3C
100
AcDbEntity
  8
KRABICKA
 62
     9
100
AcDbVertex
100
AcDb2dVertex
 10
891.7027326411062
 20
88.96376600804353
 30
0.0
 70
     8
  0
VERTEX
  5
16E
330
3C
100
AcDbEntity
  8
KRABICKA
 62
     9
100
AcDbVertex
100
AcDb2dVertex
 10
891.227278832158
 20
88.95420676914957
 30
0.0
 70
     8
  0
VERTEX
  5
16F
330
3C
100
AcDbEntity
  8
KRABICKA
 62
     9
100
AcDbVertex
100
AcDb2dVertex
 10
890.7235599470698
 20
88.94645567477212
 30
0.0
 70
     8
  0
VERTEX
  5
170
330
3C
100
AcDbEntity
  8
KRABICKA
 62
     9
100
AcDbVertex
100
AcDb2dVertex
 10
890.1937263615211
 20
88.94033513237562
 30
0.0
 70
     8
  0
VERTEX
  5
171
330
3C
100
AcDbEntity
  8
KRABICKA
 62
     9
100
AcDbVertex
100
AcDb2dVertex
 10
889.6415087470064
 20
88.93566111269379
 30
0.0
 70
     8
  0
VERTEX
  5
172
330
3C
100
AcDbEntity
  8
KRABICKA
 62
     9
100
AcDbVertex
100
AcDb2dVertex
 10
889.0706377750198
 20
88.93224958646033
 30
0.0
 70
     8
  0
VERTEX
  5
173
330
3C
100
AcDbEntity
  8
KRABICKA
 62
     9
100
AcDbVertex
100
AcDb2dVertex
 10
888.4848441170557
 20
88.92991652440898
 30
0.0
 70
     8
  0
VERTEX
  5
174
330
3C
100
AcDbEntity
  8
KRABICKA
 62
     9
100
AcDbVertex
100
AcDb2dVertex
 10
887.8878584446086
 20
88.92847789727341
 30
0.0
 70
     8
  0
VERTEX
  5
175
330
3C
100
AcDbEntity
  8
KRABICKA
 62
     9
100
AcDbVertex
100
AcDb2dVertex
 10
887.2834114291727
 20
88.92774967578736
 30
0.0
 70
     8
  0
VERTEX
  5
176
330
3C
100
AcDbEntity
  8
KRABICKA
 62
     9
100
AcDbVertex
100
AcDb2dVertex
 10
886.6752337422425
 20
88.92754783068452
 30
0.0
 70
     8
  0
VERTEX
  5
177
330
3C
100
AcDbEntity
  8
KRABICKA
 62
     9
100
AcDbVertex
100
AcDb2dVertex
 10
886.0670560553124
 20
88.92774967578736
 30
0.0
 70
     8
  0
VERTEX
  5
178
330
3C
100
AcDbEntity
  8
KRABICKA
 62
     9
100
AcDbVertex
100
AcDb2dVertex
 10
885.4626090398765
 20
88.92847789727341
 30
0.0
 70
     8
  0
VERTEX
  5
179
330
3C
100
AcDbEntity
  8
KRABICKA
 62
     9
100
AcDbVertex
100
AcDb2dVertex
 10
884.8656233674294
 20
88.92991652440898
 30
0.0
 70
     8
  0
VERTEX
  5
17A
330
3C
100
AcDbEntity
  8
KRABICKA
 62
     9
100
AcDbVertex
100
AcDb2dVertex
 10
884.2798297094654
 20
88.93224958646033
 30
0.0
 70
     8
  0
VERTEX
  5
17B
330
3C
100
AcDbEntity
  8
KRABICKA
 62
     9
100
AcDbVertex
100
AcDb2dVertex
 10
883.7089587374787
 20
88.93566111269377
 30
0.0
 70
     8
  0
VERTEX
  5
17C
330
3C
100
AcDbEntity
  8
KRABICKA
 62
     9
100
AcDbVertex
100
AcDb2dVertex
 10
883.156741122964
 20
88.94033513237559
 30
0.0
 70
     8
  0
VERTEX
  5
17D
330
3C
100
AcDbEntity
  8
KRABICKA
 62
     9
100
AcDbVertex
100
AcDb2dVertex
 10
882.6269075374154
 20
88.9464556747721
 30
0.0
 70
     8
  0
VERTEX
  5
17E
330
3C
100
AcDbEntity
  8
KRABICKA
 62
     9
100
AcDbVertex
100
AcDb2dVertex
 10
881.8048380181419
 20
88.93485123584552
 30
0.0
 70
    16
  0
VERTEX
  5
17F
330
3C
100
AcDbEntity
  8
KRABICKA
 62
     9
100
AcDbVertex
100
AcDb2dVertex
 10
878.8445460991535
 20
89.06193954341146
 30
0.0
 70
    16
  0
VERTEX
  5
180
330
3C
100
AcDbEntity
  8
KRABICKA
 62
     9
100
AcDbVertex
100
AcDb2dVertex
 10
874.84979304662
 20
89.3796103981773
 30
0.0
 70
    16
  0
VERTEX
  5
181
330
3C
100
AcDbEntity
  8
KRABICKA
 62
     9
100
AcDbVertex
100
AcDb2dVertex
 10
872.7733073645284
 20
89.61154952898917
 30
0.0
 70
    16
  0
VERTEX
  5
182
330
3C
100
AcDbEntity
  8
KRABICKA
 62
     9
100
AcDbVertex
100
AcDb2dVertex
 10
871.6908448792507
 20
89.86026498365268
 30
0.0
 70
    16
  0
VERTEX
  5
183
330
3C
100
AcDbEntity
  8
KRABICKA
 62
     9
100
AcDbVertex
100
AcDb2dVertex
 10
870.6385190845795
 20
90.318828908977
 30
0.0
 70
    16
  0
VERTEX
  5
184
330
3C
100
AcDbEntity
  8
KRABICKA
 62
     9
100
AcDbVertex
100
AcDb2dVertex
 10
869.7696122193168
 20
90.90666503724264
 30
0.0
 70
    16
  0
VERTEX
  5
185
330
3C
100
AcDbEntity
  8
KRABICKA
 62
     9
100
AcDbVertex
100
AcDb2dVertex
 10
869.0402005485468
 20
91.71719109278106
 30
0.0
 70
    16
  0
VERTEX
  5
186
330
3C
100
AcDbEntity
  8
KRABICKA
 62
     9
100
AcDbVertex
100
AcDb2dVertex
 10
868.6752337422424
 20
92.89102777545508
 30
0.0
 70
    16
  0
VERTEX
  5
187
330
3C
100
AcDbEntity
  8
KRABICKA
 62
     9
100
AcDbVertex
100
AcDb2dVertex
 10
868.6752337422426
 20
105.673896128104
 30
0.0
 70
    16
  0
VERTEX
  5
188
330
3C
100
AcDbEntity
  8
KRABICKA
 62
     9
100
AcDbVertex
100
AcDb2dVertex
 10
868.6752337422424
 20
118.456764480753
 30
0.0
 70
    16
  0
VERTEX
  5
189
330
3C
100
AcDbEntity
  8
KRABICKA
 62
     9
100
AcDbVertex
100
AcDb2dVertex
 10
869.0402005485468
 20
119.630601163427
 30
0.0
 70
    16
  0
VERTEX
  5
18A
330
3C
100
AcDbEntity
  8
KRABICKA
 62
     9
100
AcDbVertex
100
AcDb2dVertex
 10
869.7696122193168
 20
120.4411272189654
 30
0.0
 70
    16
  0
VERTEX
  5
18B
330
3C
100
AcDbEntity
  8
KRABICKA
 62
     9
100
AcDbVertex
100
AcDb2dVertex
 10
870.6385190845795
 20
121.0289633472311
 30
0.0
 70
    16
  0
VERTEX
  5
18C
330
3C
100
AcDbEntity
  8
KRABICKA
 62
     9
100
AcDbVertex
100
AcDb2dVertex
 10
871.6908448792507
 20
121.4875272725554
 30
0.0
 70
    16
  0
VERTEX
  5
18D
330
3C
100
AcDbEntity
  8
KRABICKA
 62
     9
100
AcDbVertex
100
AcDb2dVertex
 10
872.7733073645284
 20
121.7362427272189
 30
0.0
 70
    16
  0
VERTEX
  5
18E
330
3C
100
AcDbEntity
  8
KRABICKA
 62
     9
100
AcDbVertex
100
AcDb2dVertex
 10
874.84979304662
 20
121.9681818580308
 30
0.0
 70
    16
  0
VERTEX
  5
18F
330
3C
100
AcDbEntity
  8
KRABICKA
 62
     9
100
AcDbVertex
100
AcDb2dVertex
 10
878.8445460991535
 20
122.2858527127966
 30
0.0
 70
    16
  0
VERTEX
  5
190
330
3C
100
AcDbEntity
  8
KRABICKA
 62
     9
100
AcDbVertex
100
AcDb2dVertex
 10
881.8048380181419
 20
122.4129410203626
 30
0.0
 70
    16
  0
VERTEX
  5
191
330
3C
100
AcDbEntity
  8
KRABICKA
 62
     9
100
AcDbVertex
100
AcDb2dVertex
 10
886.6752337422425
 20
122.423896128104
 30
0.0
 70
    16
  0
VERTEX
  5
192
330
3C
100
AcDbEntity
  8
KRABICKA
 62
     9
100
AcDbVertex
100
AcDb2dVertex
 10
891.5456294663432
 20
122.4129410203626
 30
0.0
 70
    16
  0
VERTEX
  5
193
330
3C
100
AcDbEntity
  8
KRABICKA
 62
     9
100
AcDbVertex
100
AcDb2dVertex
 10
894.5059213853317
 20
122.2858527127966
 30
0.0
 70
    16
  0
VERTEX
  5
194
330
3C
100
AcDbEntity
  8
KRABICKA
 62
     9
100
AcDbVertex
100
AcDb2dVertex
 10
898.5006744378649
 20
121.9681818580308
 30
0.0
 70
    16
  0
VERTEX
  5
195
330
3C
100
AcDbEntity
  8
KRABICKA
 62
     9
100
AcDbVertex
100
AcDb2dVertex
 10
900.5771601199567
 20
121.7362427272189
 30
0.0
 70
    16
  0
VERTEX
  5
196
330
3C
100
AcDbEntity
  8
KRABICKA
 62
     9
100
AcDbVertex
100
AcDb2dVertex
 10
901.6596226052344
 20
121.4875272725554
 30
0.0
 70
    16
  0
VERTEX
  5
197
330
3C
100
AcDbEntity
  8
KRABICKA
 62
     9
100
AcDbVertex
100
AcDb2dVertex
 10
902.7119483999056
 20
121.0289633472311
 30
0.0
 70
    16
  0
VERTEX
  5
198
330
3C
100
AcDbEntity
  8
KRABICKA
 62
     9
100
AcDbVertex
100
AcDb2dVertex
 10
903.5808552651683
 20
120.4411272189654
 30
0.0
 70
    16
  0
VERTEX
  5
199
330
3C
100
AcDbEntity
  8
KRABICKA
 62
     9
100
AcDbVertex
100
AcDb2dVertex
 10
904.3102669359383
 20
119.630601163427
 30
0.0
 70
    16
  0
VERTEX
  5
19A
330
3C
100
AcDbEntity
  8
KRABICKA
 62
     9
100
AcDbVertex
100
AcDb2dVertex
 10
904.6752337422427
 20
118.456764480753
 30
0.0
 70
    16
  0
VERTEX
  5
19B
330
3C
100
AcDbEntity
  8
KRABICKA
 62
     9
100
AcDbVertex
100
AcDb2dVertex
 10
904.6752337422425
 20
105.673896128104
 30
0.0
 70
    16
  0
VERTEX
  5
19C
330
3C
100
AcDbEntity
  8
KRABICKA
 62
     9
100
AcDbVertex
100
AcDb2dVertex
 10
904.6752337422427
 20
92.89102777545508
 30
0.0
 70
    16
  0
VERTEX
  5
19D
330
3C
100
AcDbEntity
  8
KRABICKA
 62
     9
100
AcDbVertex
100
AcDb2dVertex
 10
904.3102669359383
 20
91.71719109278106
 30
0.0
 70
    16
  0
VERTEX
  5
19E
330
3C
100
AcDbEntity
  8
KRABICKA
 62
     9
100
AcDbVertex
100
AcDb2dVertex
 10
903.5808552651683
 20
90.90666503724264
 30
0.0
 70
    16
  0
VERTEX
  5
19F
330
3C
100
AcDbEntity
  8
KRABICKA
 62
     9
100
AcDbVertex
100
AcDb2dVertex
 10
902.7119483999056
 20
90.318828908977
 30
0.0
 70
    16
  0
VERTEX
  5
1A0
330
3C
100
AcDbEntity
  8
KRABICKA
 62
     9
100
AcDbVertex
100
AcDb2dVertex
 10
901.6596226052344
 20
89.86026498365268
 30
0.0
 70
    16
  0
VERTEX
  5
1A1
330
3C
100
AcDbEntity
  8
KRABICKA
 62
     9
100
AcDbVertex
100
AcDb2dVertex
 10
900.5771601199567
 20
89.61154952898917
 30
0.0
 70
    16
  0
VERTEX
  5
1A2
330
3C
100
AcDbEntity
  8
KRABICKA
 62
     9
100
AcDbVertex
100
AcDb2dVertex
 10
898.5006744378649
 20
89.3796103981773
 30
0.0
 70
    16
  0
VERTEX
  5
1A3
330
3C
100
AcDbEntity
  8
KRABICKA
 62
     9
100
AcDbVertex
100
AcDb2dVertex
 10
894.5059213853317
 20
89.06193954341146
 30
0.0
 70
    16
  0
VERTEX
  5
1A4
330
3C
100
AcDbEntity
  8
KRABICKA
 62
     9
100
AcDbVertex
100
AcDb2dVertex
 10
891.5456294663432
 20
88.93485123584552
 30
0.0
 70
    16
  0
SEQEND
  5
1A5
330
3C
100
AcDbEntity
  8
KRABICKA
 62
     9
  0
LINE
  5
1A6
330
2
100
AcDbEntity
  8
SVORKY
  6
Continuous
100
AcDbLine
 10
889.4252337422424
 20
84.42389612810407
 30
0.0
 11
889.1752337422424
 21
84.42389612810407
 31
0.0
  0
LINE
  5
1A8
330
2
100
AcDbEntity
  8
SVORKY
  6
Continuous
100
AcDbLine
 10
889.1752337422424
 20
80.42389612810408
 30
0.0
 11
889.4252337422424
 21
80.42389612810408
 31
0.0
  0
LWPOLYLINE
  5
1A9
330
2
100
AcDbEntity
  8
SVORKY
  6
Continuous
100
AcDbPolyline
 90
        4
 70
     1
 43
0.0
 10
884.1752337422423
 20
84.42389612810407
 10
889.1752337422424
 20
84.42389612810407
 10
889.1752337422424
 20
75.92389612810407
 10
884.1752337422423
 20
75.92389612810407
  0
TEXT
  5
1AA
330
2
100
AcDbEntity
  8
SVORKY_POPIS
 62
     7
100
AcDbText
 10
885.7973200126972
 20
76.54459054926468
 30
0.0
 40
0.65
  1
AI+
 50
90.0
  7
COMIC
 72
     1
 11
885.7973200126972
 21
77.33642072517807
 31
0.0
100
AcDbText
  0
TEXT
  5
1AD
330
2
100
AcDbEntity
  8
SVORKY_POPIS
 62
     7
100
AcDbText
 10
888.2973200126972
 20
76.57339636793856
 30
0.0
 40
0.65
  1
AI-
 50
90.0
  7
COMIC
 72
     1
 11
888.2973200126972
 21
77.33642072517807
 31
0.0
100
AcDbText
  0
LINE
  5
1AE
330
2
100
AcDbEntity
  8
SVORKY
  6
Continuous
100
AcDbLine
 10
884.1752337422423
 20
76.17389612810407
 30
0.0
 11
889.1752337422424
 21
76.17389612810407
 31
0.0
  0
LINE
  5
1AF
330
2
100
AcDbEntity
  8
SVORKY
  6
Continuous
100
AcDbLine
 10
888.6752337422423
 20
81.67389612810408
 30
0.0
 11
889.1752337422424
 21
81.67389612810408
 31
0.0
  0
CIRCLE
  5
1B0
330
2
100
AcDbEntity
  8
SVORKY
 62
     7
100
AcDbCircle
 10
887.9252337422425
 20
79.92389612810407
 30
0.0
 40
0.875
  0
LINE
  5
1B1
330
2
100
AcDbEntity
  8
SVORKY
 62
     7
100
AcDbLine
 10
887.1799850791942
 20
79.46538830421022
 30
0.0
 11
888.7998919333467
 21
79.89944104054163
 31
0.0
  0
LINE
  5
1B2
330
2
100
AcDbEntity
  8
SVORKY
 62
     7
100
AcDbLine
 10
887.0505755548492
 20
79.94835121534183
 30
0.0
 11
888.6704824127127
 21
80.38240395134858
 31
0.0
  0
CIRCLE
  5
1B3
330
2
100
AcDbEntity
  8
SVORKY
  6
Continuous
100
AcDbCircle
 10
887.9252337422425
 20
82.67389612810408
 30
0.0
 40
0.375
  0
CIRCLE
  5
1B4
330
2
100
AcDbEntity
  8
SVORKY
  6
Continuous
100
AcDbCircle
 10
887.9252337422425
 20
82.67389612810408
 30
0.0
 40
0.6499999999999986
  0
LINE
  5
1B5
330
2
100
AcDbEntity
  8
SVORKY
  6
Continuous
100
AcDbLine
 10
888.6752337422423
 20
84.42389612810407
 30
0.0
 11
888.6752337422423
 21
81.17389612810407
 31
0.0
  0
LINE
  5
1B6
330
2
100
AcDbEntity
  8
SVORKY
 62
     7
100
AcDbLine
 10
885.9469495061986
 20
79.22144495116268
 30
0.0
 11
885.3733642865174
 21
80.79735738204513
 31
0.0
  0
LINE
  5
1B7
330
2
100
AcDbEntity
  8
SVORKY
 62
     7
100
AcDbLine
 10
885.4771031979673
 20
79.0504348778883
 30
0.0
 11
884.9035179782861
 21
80.62634731249605
 31
0.0
  0
LINE
  5
1B8
330
2
100
AcDbEntity
  8
SVORKY
  6
Continuous
100
AcDbLine
 10
884.1752337422423
 20
81.67389612810408
 30
0.0
 11
884.6752337422424
 21
81.67389612810408
 31
0.0
  0
LINE
  5
1B9
330
2
100
AcDbEntity
  8
SVORKY
  6
Continuous
100
AcDbLine
 10
884.1752337422423
 20
81.17389612810407
 30
0.0
 11
884.6752337422424
 21
81.17389612810407
 31
0.0
  0
CIRCLE
  5
1BA
330
2
100
AcDbEntity
  8
SVORKY
  6
Continuous
100
AcDbCircle
 10
885.4252337422424
 20
82.67389612810408
 30
0.0
 40
0.6499999999999986
  0
LINE
  5
1BB
330
2
100
AcDbEntity
  8
SVORKY
  6
Continuous
100
AcDbLine
 10
884.6752337422424
 20
81.17389612810407
 30
0.0
 11
884.6752337422424
 21
84.42389612810407
 31
0.0
  0
CIRCLE
  5
1BC
330
2
100
AcDbEntity
  8
SVORKY
  6
Continuous
100
AcDbCircle
 10
885.4252337422424
 20
82.67389612810408
 30
0.0
 40
0.375
  0
LINE
  5
1BD
330
2
100
AcDbEntity
  8
SVORKY
  6
Continuous
100
AcDbLine
 10
884.1752337422423
 20
78.42389612810407
 30
0.0
 11
889.1752337422424
 21
78.42389612810407
 31
0.0
  0
LINE
  5
1BE
330
2
100
AcDbEntity
  8
SVORKY
  6
Continuous
100
AcDbLine
 10
884.1752337422423
 20
81.17389612810407
 30
0.0
 11
889.1752337422424
 21
81.17389612810407
 31
0.0
  0
CIRCLE
  5
1BF
330
2
100
AcDbEntity
  8
SVORKY
 62
     7
100
AcDbCircle
 10
885.4252337422424
 20
79.92389612810407
 30
0.0
 40
0.875
  0
LINE
  5
1C0
330
2
100
AcDbEntity
  8
SVORKY
  6
Continuous
100
AcDbLine
 10
889.4252337422424
 20
80.42389612810408
 30
0.0
 11
889.4252337422424
 21
84.42389612810407
 31
0.0
  0
HATCH
  5
1C1
330
2
100
AcDbEntity
  8
STITEK_M
 62
   140
100
AcDbHatch
 10
0.0
 20
0.0
 30
0.0
210
0.0
220
0.0
230
1.0
  2
SOLID
 70
     1
 71
     1
 91
        1
 92
        1
 93
        3
 72
     1
 10
887.7899006629109
 20
90.8285824373155
 11
888.6924717604371
 21
92.39188143567416
 72
     1
 10
888.6924717604371
 20
92.39188143567416
 11
889.5950428579633
 21
90.8285824373155
 72
     1
 10
889.5950428579633
 20
90.8285824373155
 11
887.7899006629109
 21
90.8285824373155
 97
        3
330
1C2
330
1C3
330
1C4
 75
     0
 76
     1
 98
        1
 10
893.4862931170057
 20
81.83864825693268
  0
LINE
  5
1C2
102
{ACAD_REACTORS
330
1C1
102
}
330
2
100
AcDbEntity
  8
STITEK_M
 62
   140
100
AcDbLine
 10
887.7899006629109
 20
90.8285824373155
 30
0.0
 11
888.6924717604371
 21
92.39188143567416
 31
0.0
  0
LINE
  5
1C3
102
{ACAD_REACTORS
330
1C1
102
}
330
2
100
AcDbEntity
  8
STITEK_M
 62
   140
100
AcDbLine
 10
889.5950428579633
 20
90.8285824373155
 30
0.0
 11
888.6924717604371
 21
92.39188143567416
 31
0.0
  0
LINE
  5
1C4
102
{ACAD_REACTORS
330
1C1
102
}
330
2
100
AcDbEntity
  8
STITEK_M
 62
   140
100
AcDbLine
 10
887.7899006629109
 20
90.8285824373155
 30
0.0
 11
889.5950428579633
 21
90.8285824373155
 31
0.0
  0
CIRCLE
  5
1C5
330
2
100
AcDbEntity
  8
STITEK_M
 62
   140
100
AcDbCircle
 10
889.6280783915429
 20
92.86830862790029
 30
0.0
 40
0.5104527936206277
  0
CIRCLE
  5
1C6
330
2
100
AcDbEntity
  8
STITEK_M
 62
   140
100
AcDbCircle
 10
889.6280783915429
 20
92.86830862790029
 30
0.0
 40
0.5046685561975268
  0
CIRCLE
  5
1C7
330
2
100
AcDbEntity
  8
STITEK_M
 62
   140
100
AcDbCircle
 10
889.6280783915429
 20
92.86830862790029
 30
0.0
 40
0.4988843187744258
  0
CIRCLE
  5
1C8
330
2
100
AcDbEntity
  8
STITEK_M
 62
   140
100
AcDbCircle
 10
889.6280783915429
 20
92.86830862790029
 30
0.0
 40
0.4931000813513247
  0
CIRCLE
  5
1C9
330
2
100
AcDbEntity
  8
STITEK_M
 62
   140
100
AcDbCircle
 10
889.6280783915429
 20
92.86830862790029
 30
0.0
 40
0.4873158439282237
  0
CIRCLE
  5
1CA
330
2
100
AcDbEntity
  8
STITEK_M
 62
   140
100
AcDbCircle
 10
889.6280783915429
 20
92.86830862790029
 30
0.0
 40
0.4815316065051227
  0
CIRCLE
  5
1CB
330
2
100
AcDbEntity
  8
STITEK_M
 62
   140
100
AcDbCircle
 10
889.6280783915429
 20
92.86830862790029
 30
0.0
 40
0.4757473690820217
  0
CIRCLE
  5
1CC
330
2
100
AcDbEntity
  8
STITEK_M
 62
   140
100
AcDbCircle
 10
889.6280783915429
 20
92.86830862790029
 30
0.0
 40
0.4699631316589207
  0
CIRCLE
  5
1CD
330
2
100
AcDbEntity
  8
STITEK_M
 62
   140
100
AcDbCircle
 10
889.6280783915429
 20
92.86830862790029
 30
0.0
 40
0.4641788942358197
  0
HATCH
  5
1CE
330
2
100
AcDbEntity
  8
STITEK_M
  6
Continuous
100
AcDbHatch
 10
0.0
 20
0.0
 30
0.0
210
0.0
220
0.0
230
1.0
  2
SOLID
 70
     1
 71
     1
 91
        6
 92
        1
 93
       40
 72
     1
 10
877.4442644819426
 20
95.86928002428463
 11
877.409335223858
 21
95.90805846058797
 72
     1
 10
877.409335223858
 20
95.90805846058797
 11
877.4000740506739
 21
95.92889777064048
 72
     1
 10
877.4000740506739
 20
95.92889777064048
 11
877.3955622549705
 21
95.95138865528225
 72
     1
 10
877.3955622549705
 20
95.95138865528225
 11
877.3959528572115
 21
95.97564893334535
 72
     1
 10
877.3959528572115
 20
95.97564893334535
 11
877.3974424172324
 21
96.00017528964807
 72
     1
 10
877.3974424172324
 20
96.00017528964807
 11
877.401969587375
 21
96.02257978689671
 72
     1
 10
877.401969587375
 20
96.02257978689671
 11
877.4095071339941
 21
96.04293511901804
 72
     1
 10
877.4095071339941
 20
96.04293511901804
 11
877.4210565247972
 21
96.06456041932061
 72
     1
 10
877.4210565247972
 20
96.06456041932061
 11
877.4312467542571
 21
96.07930021518493
 72
     1
 10
877.4312467542571
 20
96.07930021518493
 11
877.4400786158839
 21
96.08733179930224
 72
     1
 10
877.4400786158839
 20
96.08733179930224
 11
877.4686847862241
 21
96.11912903255287
 72
     1
 10
877.4686847862241
 20
96.11912903255287
 11
877.4918492188501
 21
96.15652305150611
 72
     1
 10
877.4918492188501
 20
96.15652305150611
 11
877.509571913762
 21
96.19951385616175
 72
     1
 10
877.509571913762
 20
96.19951385616175
 11
877.5189582769774
 21
96.24441139069453
 72
     1
 10
877.5189582769774
 20
96.24441139069453
 11
877.5237677590931
 21
96.30793081736195
 72
     1
 10
877.5237677590931
 20
96.30793081736195
 11
877.5239748362391
 21
96.39011634480374
 72
     1
 10
877.5239748362391
 20
96.39011634480374
 11
877.5219670234635
 21
96.39737151130326
 72
     1
 10
877.5219670234635
 20
96.39737151130326
 11
877.5225078909191
 21
96.40779282354003
 72
     1
 10
877.5225078909191
 20
96.40779282354003
 11
877.5254779099986
 21
96.42156178726501
 72
     1
 10
877.5254779099986
 20
96.42156178726501
 11
877.535758718194
 21
96.42164713799777
 72
     1
 10
877.535758718194
 20
96.42164713799777
 11
877.5509436517358
 21
96.41280438867347
 72
     1
 10
877.5509436517358
 20
96.41280438867347
 11
877.5709196857407
 21
96.39482092221335
 72
     1
 10
877.5709196857407
 20
96.39482092221335
 11
877.587110530297
 21
96.37941187247468
 72
     1
 10
877.587110530297
 20
96.37941187247468
 11
877.6060408638757
 21
96.35417863843199
 72
     1
 10
877.6060408638757
 20
96.35417863843199
 11
877.6277727863769
 21
96.31903918377354
 72
     1
 10
877.6277727863769
 20
96.31903918377354
 11
877.6548180842526
 21
96.26624829203706
 72
     1
 10
877.6548180842526
 20
96.26624829203706
 11
877.6759660442792
 21
96.21187986114476
 72
     1
 10
877.6759660442792
 20
96.21187986114476
 11
877.6913446211832
 21
96.15599302957893
 72
     1
 10
877.6913446211832
 20
96.15599302957893
 11
877.7019255457426
 21
96.10183081717108
 72
     1
 10
877.7019255457426
 20
96.10183081717108
 11
877.7045054671429
 21
96.04465547067613
 72
     1
 10
877.7045054671429
 20
96.04465547067613
 11
877.6993097643982
 21
95.98433186089065
 72
     1
 10
877.6993097643982
 20
95.98433186089065
 11
877.6820931629126
 21
95.93290941118743
 72
     1
 10
877.6820931629126
 20
95.93290941118743
 11
877.6529047551383
 21
95.89109433091493
 72
     1
 10
877.6529047551383
 20
95.89109433091493
 11
877.6117661872618
 21
95.85900227099747
 72
     1
 10
877.6117661872618
 20
95.85900227099747
 11
877.5850392500139
 21
95.84704921290162
 72
     1
 10
877.5850392500139
 20
95.84704921290162
 11
877.555639693513
 21
95.84056755485098
 72
     1
 10
877.555639693513
 20
95.84056755485098
 11
877.5235810732038
 21
95.8397124852174
 72
     1
 10
877.5235810732038
 20
95.8397124852174
 11
877.4920861612077
 21
95.84699306573439
 72
     1
 10
877.4920861612077
 20
95.84699306573439
 11
877.4656562226248
 21
95.85685897711092
 72
     1
 10
877.4656562226248
 20
95.85685897711092
 11
877.4442644819426
 21
95.86928002428463
 97
        1
330
1CF
 92
        1
 93
       40
 72
     1
 10
876.9104608788765
 20
96.22634484515661
 11
876.9265793607921
 21
96.27598368814492
 72
     1
 10
876.9265793607921
 20
96.27598368814492
 11
876.9399961461029
 21
96.29442375441747
 72
     1
 10
876.9399961461029
 20
96.29442375441747
 11
876.9572179257044
 21
96.30957652643424
 72
     1
 10
876.9572179257044
 20
96.30957652643424
 11
876.9784232439306
 21
96.32136839400233
 72
     1
 10
876.9784232439306
 20
96.32136839400233
 11
877.0004084715615
 21
96.33234157533506
 72
     1
 10
877.0004084715615
 20
96.33234157533506
 11
877.022074920409
 21
96.3396231796087
 72
     1
 10
877.022074920409
 20
96.3396231796087
 11
877.0434719284381
 21
96.34327313881504
 72
     1
 10
877.0434719284381
 20
96.34327313881504
 11
877.067974683266
 21
96.34408372313261
 72
     1
 10
877.067974683266
 20
96.34408372313261
 11
877.0858348356611
 21
96.34262862348192
 72
     1
 10
877.0858348356611
 20
96.34262862348192
 11
877.0972063223528
 21
96.33899579900925
 72
     1
 10
877.0972063223528
 20
96.33899579900925
 11
877.1390466192881
 21
96.33012074541488
 72
     1
 10
877.1390466192881
 20
96.33012074541488
 11
877.1830130059642
 21
96.3287567677731
 72
     1
 10
877.1830130059642
 20
96.3287567677731
 11
877.229105482381
 21
96.33490386608375
 72
     1
 10
877.229105482381
 20
96.33490386608375
 11
877.2726810694614
 21
96.34922380435652
 72
     1
 10
877.2726810694614
 20
96.34922380435652
 11
877.330095247647
 21
96.37681838399894
 72
     1
 10
877.330095247647
 20
96.37681838399894
 11
877.4013735408081
 21
96.41773181365072
 72
     1
 10
877.4013735408081
 20
96.41773181365072
 11
877.4066527929177
 21
96.42309821377025
 72
     1
 10
877.4066527929177
 20
96.42309821377025
 11
877.4159483477831
 21
96.42784046493202
 72
     1
 10
877.4159483477831
 20
96.42784046493202
 11
877.4293576296924
 21
96.43215283482202
 72
     1
 10
877.4293576296924
 20
96.43215283482202
 11
877.4345719496929
 21
96.42329206911975
 72
     1
 10
877.4345719496929
 20
96.42329206911975
 11
877.4345063709098
 21
96.40572015625549
 72
     1
 10
877.4345063709098
 20
96.40572015625549
 11
877.4289202491097
 21
96.37942867011034
 72
     1
 10
877.4289202491097
 20
96.37942867011034
 11
877.4236710428658
 21
96.35770246254667
 72
     1
 10
877.4236710428658
 20
96.35770246254667
 11
877.4112835879547
 21
96.32869169574398
 72
     1
 10
877.4112835879547
 20
96.32869169574398
 11
877.3917178887959
 21
96.29230157145554
 72
     1
 10
877.3917178887959
 20
96.29230157145554
 11
877.3595222844017
 21
96.24248421057405
 72
     1
 10
877.3595222844017
 20
96.24248421057405
 11
877.3230118220983
 21
96.19698532450676
 72
     1
 10
877.3230118220983
 20
96.19698532450676
 11
877.2823016946771
 21
96.15572367045093
 72
     1
 10
877.2823016946771
 20
96.15572367045093
 11
877.2406863050864
 21
96.11947921478304
 72
     1
 10
877.2406863050864
 20
96.11947921478304
 11
877.1924609632518
 21
96.08865726406314
 72
     1
 10
877.1924609632518
 20
96.08865726406314
 11
877.1376213333574
 21
96.06299506973764
 72
     1
 10
877.1376213333574
 20
96.06299506973764
 11
877.0844798848468
 21
96.0521938591394
 72
     1
 10
877.0844798848468
 20
96.0521938591394
 11
877.0336727591823
 21
96.05656422163193
 72
     1
 10
877.0336727591823
 20
96.05656422163193
 11
876.9853109360957
 21
96.07614523652948
 72
     1
 10
876.9853109360957
 20
96.07614523652948
 11
876.9615958155078
 21
96.09331491410358
 72
     1
 10
876.9615958155078
 20
96.09331491410358
 11
876.941282756727
 21
96.11553484786796
 72
     1
 10
876.941282756727
 20
96.11553484786796
 11
876.9245129345476
 21
96.14287089264941
 72
     1
 10
876.9245129345476
 20
96.14287089264941
 11
876.9150706462317
 21
96.17378657678637
 72
     1
 10
876.9150706462317
 20
96.17378657678637
 11
876.9103998068237
 21
96.20160853070792
 72
     1
 10
876.9103998068237
 20
96.20160853070792
 11
876.9104608788765
 21
96.22634484515661
 97
        1
330
1D0
 92
        1
 93
       40
 72
     1
 10
876.9527862830166
 20
96.86716473647944
 11
877.0038340230167
 21
96.87802514316445
 72
     1
 10
877.0038340230167
 20
96.87802514316445
 11
877.0265119815114
 21
96.87562589938444
 72
     1
 10
877.0265119815114
 20
96.87562589938444
 11
877.0482455568165
 21
96.86828778675945
 72
     1
 10
877.0482455568165
 20
96.86828778675945
 11
877.0690602728016
 21
96.85581937626444
 72
     1
 10
877.0690602728016
 20
96.85581937626444
 11
877.0895559404117
 21
96.84226620129443
 72
     1
 10
877.0895559404117
 20
96.84226620129443
 11
877.1066952191166
 21
96.82714330831943
 72
     1
 10
877.1066952191166
 20
96.82714330831943
 11
877.1205546805266
 21
96.81043793540444
 72
     1
 10
877.1205546805266
 20
96.81043793540444
 11
877.1335080445515
 21
96.78962321941945
 72
     1
 10
877.1335080445515
 20
96.78962321941945
 11
877.1411779674865
 21
96.77342832390444
 72
     1
 10
877.1411779674865
 20
96.77342832390444
 11
877.1437175925516
 21
96.76176391531443
 72
     1
 10
877.1437175925516
 20
96.76176391531443
 11
877.1569517191464
 21
96.72109162846943
 72
     1
 10
877.1569517191464
 20
96.72109162846943
 11
877.1777536731965
 21
96.68233363187443
 72
     1
 10
877.1777536731965
 20
96.68233363187443
 11
877.2061234547015
 21
96.64548992552944
 72
     1
 10
877.2061234547015
 20
96.64548992552944
 11
877.2403126785667
 21
96.61491232926945
 72
     1
 10
877.2403126785667
 20
96.61491232926945
 11
877.2929173746366
 21
96.57898748224445
 72
     1
 10
877.2929173746366
 20
96.57898748224445
 11
877.3639885906515
 21
96.53771538445445
 72
     1
 10
877.3639885906515
 20
96.53771538445445
 11
877.3712756555365
 21
96.53582661807444
 72
     1
 10
877.3712756555365
 20
96.53582661807444
 11
877.3800303429466
 21
96.53014755699944
 72
     1
 10
877.3800303429466
 20
96.53014755699944
 11
877.3904696057766
 21
96.52069096316445
 72
     1
 10
877.3904696057766
 20
96.52069096316445
 11
877.3854031175815
 21
96.51174484672944
 72
     1
 10
877.3854031175815
 20
96.51174484672944
 11
877.3701526052565
 21
96.50301568318944
 72
     1
 10
877.3701526052565
 20
96.50301568318944
 11
877.3445904494515
 21
96.49470766350443
 72
     1
 10
877.3445904494515
 20
96.49470766350443
 11
877.3231503986515
 21
96.48839050567943
 72
     1
 10
877.3231503986515
 20
96.48839050567943
 11
877.2918326101615
 21
96.48461297291945
 72
     1
 10
877.2918326101615
 20
96.48461297291945
 11
877.2505349885015
 21
96.48336230328943
 72
     1
 10
877.2505349885015
 20
96.48336230328943
 11
877.1912940862314
 21
96.48633583414444
 72
     1
 10
877.1912940862314
 20
96.48633583414444
 11
877.1336356639016
 21
96.49520537896943
 72
     1
 10
877.1336356639016
 20
96.49520537896943
 11
877.0775469595765
 21
96.50983055647945
 72
     1
 10
877.0775469595765
 20
96.50983055647945
 11
877.0253506454265
 21
96.52774831321943
 72
     1
 10
877.0253506454265
 20
96.52774831321943
 11
876.9745453821915
 21
96.55410170899443
 72
     1
 10
876.9745453821915
 20
96.55410170899443
 11
876.9249014550416
 21
96.58876312445443
 72
     1
 10
876.9249014550416
 20
96.58876312445443
 11
876.8889766080166
 21
96.62938436355943
 72
     1
 10
876.8889766080166
 20
96.62938436355943
 11
876.8673578901266
 21
96.67556980632443
 72
     1
 10
876.8673578901266
 20
96.67556980632443
 11
876.8601346349166
 21
96.72724288113945
 72
     1
 10
876.8601346349166
 20
96.72724288113945
 11
876.8631464515765
 21
96.75636561680944
 72
     1
 10
876.8631464515765
 20
96.75636561680944
 11
876.8722329492964
 21
96.78506720862444
 72
     1
 10
876.8722329492964
 20
96.78506720862444
 11
876.8875217474265
 21
96.81325832303944
 72
     1
 10
876.8875217474265
 20
96.81325832303944
 11
876.9095743711064
 21
96.83689342665942
 72
     1
 10
876.9095743711064
 20
96.83689342665942
 11
876.9313334702815
 21
96.85484946920444
 72
     1
 10
876.9313334702815
 20
96.85484946920444
 11
876.9527862830166
 21
96.86716473647944
 97
        1
330
1D1
 92
        1
 93
       40
 72
     1
 10
877.5289152902224
 20
97.1509198069303
 11
877.5638445483071
 21
97.11214137062695
 72
     1
 10
877.5638445483071
 20
97.11214137062695
 11
877.5731057214912
 21
97.09130206057441
 72
     1
 10
877.5731057214912
 20
97.09130206057441
 11
877.5776175171948
 21
97.06881117593265
 72
     1
 10
877.5776175171948
 20
97.06881117593265
 11
877.5772269149538
 21
97.04455089786955
 72
     1
 10
877.5772269149538
 20
97.04455089786955
 11
877.5757373549327
 21
97.02002454156682
 72
     1
 10
877.5757373549327
 20
97.02002454156682
 11
877.5712101847902
 21
96.99762004431818
 72
     1
 10
877.5712101847902
 20
96.99762004431818
 11
877.563672638171
 21
96.97726471219684
 72
     1
 10
877.563672638171
 20
96.97726471219684
 11
877.552123247368
 21
96.95563941189428
 72
     1
 10
877.552123247368
 20
96.95563941189428
 11
877.5419330179079
 21
96.94089961602998
 72
     1
 10
877.5419330179079
 20
96.94089961602998
 11
877.5331011562812
 21
96.93286803191265
 72
     1
 10
877.5331011562812
 20
96.93286803191265
 11
877.504494985941
 21
96.90107079866201
 72
     1
 10
877.504494985941
 20
96.90107079866201
 11
877.481330553315
 21
96.86367677970878
 72
     1
 10
877.481330553315
 20
96.86367677970878
 11
877.4636078584032
 21
96.82068597505315
 72
     1
 10
877.4636078584032
 20
96.82068597505315
 11
877.4542214951878
 21
96.77578844052037
 72
     1
 10
877.4542214951878
 20
96.77578844052037
 11
877.4494120130722
 21
96.71226901385296
 72
     1
 10
877.4494120130722
 20
96.71226901385296
 11
877.449204935926
 21
96.63008348641117
 72
     1
 10
877.449204935926
 20
96.63008348641117
 11
877.4512127487016
 21
96.62282831991163
 72
     1
 10
877.4512127487016
 20
96.62282831991163
 11
877.450671881246
 21
96.61240700767487
 72
     1
 10
877.450671881246
 20
96.61240700767487
 11
877.4477018621666
 21
96.59863804394987
 72
     1
 10
877.4477018621666
 20
96.59863804394987
 11
877.4374210539713
 21
96.59855269321713
 72
     1
 10
877.4374210539713
 20
96.59855269321713
 11
877.4222361204293
 21
96.60739544254141
 72
     1
 10
877.4222361204293
 20
96.60739544254141
 11
877.4022600864244
 21
96.62537890900154
 72
     1
 10
877.4022600864244
 20
96.62537890900154
 11
877.3860692418681
 21
96.64078795874022
 72
     1
 10
877.3860692418681
 20
96.64078795874022
 11
877.3671389082894
 21
96.66602119278289
 72
     1
 10
877.3671389082894
 20
96.66602119278289
 11
877.3454069857882
 21
96.70116064744135
 72
     1
 10
877.3454069857882
 20
96.70116064744135
 11
877.3183616879125
 21
96.75395153917783
 72
     1
 10
877.3183616879125
 20
96.75395153917783
 11
877.2972137278859
 21
96.80831997007013
 72
     1
 10
877.2972137278859
 20
96.80831997007013
 11
877.2818351509821
 21
96.86420680163596
 72
     1
 10
877.2818351509821
 20
96.86420680163596
 11
877.2712542264226
 21
96.91836901404384
 72
     1
 10
877.2712542264226
 20
96.91836901404384
 11
877.2686743050222
 21
96.97554436053875
 72
     1
 10
877.2686743050222
 20
96.97554436053875
 11
877.2738700077669
 21
97.03586797032425
 72
     1
 10
877.2738700077669
 20
97.03586797032425
 11
877.2910866092525
 21
97.08729042002746
 72
     1
 10
877.2910866092525
 20
97.08729042002746
 11
877.3202750170268
 21
97.12910550029995
 72
     1
 10
877.3202750170268
 20
97.12910550029995
 11
877.3614135849033
 21
97.1611975602174
 72
     1
 10
877.3614135849033
 20
97.1611975602174
 11
877.3881405221512
 21
97.17315061831328
 72
     1
 10
877.3881405221512
 20
97.17315061831328
 11
877.4175400786521
 21
97.17963227636392
 72
     1
 10
877.4175400786521
 20
97.17963227636392
 11
877.4495986989615
 21
97.18048734599747
 72
     1
 10
877.4495986989615
 20
97.18048734599747
 11
877.4810936109574
 21
97.1732067654805
 72
     1
 10
877.4810936109574
 20
97.1732067654805
 11
877.5075235495403
 21
97.16334085410398
 72
     1
 10
877.5075235495403
 20
97.16334085410398
 11
877.5289152902224
 21
97.1509198069303
 97
        1
330
1D2
 92
        1
 93
       40
 72
     1
 10
878.0627188932886
 20
96.79385498605828
 11
878.0466004113732
 21
96.74421614306996
 72
     1
 10
878.0466004113732
 20
96.74421614306996
 11
878.0331836260623
 21
96.72577607679741
 72
     1
 10
878.0331836260623
 20
96.72577607679741
 11
878.0159618464606
 21
96.71062330478065
 72
     1
 10
878.0159618464606
 20
96.71062330478065
 11
877.9947565282347
 21
96.69883143721257
 72
     1
 10
877.9947565282347
 20
96.69883143721257
 11
877.9727713006037
 21
96.68785825587983
 72
     1
 10
877.9727713006037
 20
96.68785825587983
 11
877.951104851756
 21
96.6805766516062
 72
     1
 10
877.951104851756
 20
96.6805766516062
 11
877.929707843727
 21
96.67692669239986
 72
     1
 10
877.929707843727
 20
96.67692669239986
 11
877.905205088899
 21
96.67611610808229
 72
     1
 10
877.905205088899
 20
96.67611610808229
 11
877.887344936504
 21
96.67757120773297
 72
     1
 10
877.887344936504
 20
96.67757120773297
 11
877.8759734498123
 21
96.68120403220566
 72
     1
 10
877.8759734498123
 20
96.68120403220566
 11
877.8341331528769
 21
96.69007908580002
 72
     1
 10
877.8341331528769
 20
96.69007908580002
 11
877.790166766201
 21
96.69144306344179
 72
     1
 10
877.790166766201
 20
96.69144306344179
 11
877.7440742897841
 21
96.68529596513115
 72
     1
 10
877.7440742897841
 20
96.68529596513115
 11
877.7004987027039
 21
96.67097602685837
 72
     1
 10
877.7004987027039
 20
96.67097602685837
 11
877.6430845245181
 21
96.64338144721595
 72
     1
 10
877.6430845245181
 20
96.64338144721595
 11
877.571806231357
 21
96.60246801756416
 72
     1
 10
877.571806231357
 20
96.60246801756416
 11
877.5665269792476
 21
96.59710161744465
 72
     1
 10
877.5665269792476
 20
96.59710161744465
 11
877.557231424382
 21
96.59235936628288
 72
     1
 10
877.557231424382
 20
96.59235936628288
 11
877.5438221424726
 21
96.58804699639288
 72
     1
 10
877.5438221424726
 20
96.58804699639288
 11
877.5386078224721
 21
96.59690776209513
 72
     1
 10
877.5386078224721
 20
96.59690776209513
 11
877.5386734012553
 21
96.61447967495941
 72
     1
 10
877.5386734012553
 20
96.61447967495941
 11
877.5442595230554
 21
96.64077116110457
 72
     1
 10
877.5442595230554
 20
96.64077116110457
 11
877.5495087292993
 21
96.66249736866824
 72
     1
 10
877.5495087292993
 20
96.66249736866824
 11
877.5618961842104
 21
96.69150813547091
 72
     1
 10
877.5618961842104
 20
96.69150813547091
 11
877.5814618833692
 21
96.72789825975934
 72
     1
 10
877.5814618833692
 20
96.72789825975934
 11
877.6136574877636
 21
96.77771562064084
 72
     1
 10
877.6136574877636
 20
96.77771562064084
 11
877.6501679500668
 21
96.82321450670812
 72
     1
 10
877.6501679500668
 20
96.82321450670812
 11
877.690878077488
 21
96.86447616076396
 72
     1
 10
877.690878077488
 20
96.86447616076396
 11
877.7324934670787
 21
96.90072061643185
 72
     1
 10
877.7324934670787
 20
96.90072061643185
 11
877.7807188089132
 21
96.93154256715175
 72
     1
 10
877.7807188089132
 20
96.93154256715175
 11
877.8355584388078
 21
96.95720476147727
 72
     1
 10
877.8355584388078
 20
96.95720476147727
 11
877.8886998873183
 21
96.96800597207548
 72
     1
 10
877.8886998873183
 20
96.96800597207548
 11
877.9395070129828
 21
96.96363560958296
 72
     1
 10
877.9395070129828
 20
96.96363560958296
 11
877.9878688360694
 21
96.94405459468541
 72
     1
 10
877.9878688360694
 20
96.94405459468541
 11
878.0115839566573
 21
96.9268849171113
 72
     1
 10
878.0115839566573
 20
96.9268849171113
 11
878.0318970154382
 21
96.90466498334693
 72
     1
 10
878.0318970154382
 20
96.90466498334693
 11
878.0486668376175
 21
96.87732893856548
 72
     1
 10
878.0486668376175
 20
96.87732893856548
 11
878.0581091259335
 21
96.84641325442852
 72
     1
 10
878.0581091259335
 20
96.84641325442852
 11
878.0627799653414
 21
96.81859130050698
 72
     1
 10
878.0627799653414
 20
96.81859130050698
 11
878.0627188932886
 21
96.79385498605828
 97
        1
330
1D3
 92
        1
 93
       40
 72
     1
 10
878.0203934891485
 20
96.15303509473546
 11
877.9693457491484
 21
96.14217468805046
 72
     1
 10
877.9693457491484
 20
96.14217468805046
 11
877.9466677906537
 21
96.14457393183045
 72
     1
 10
877.9466677906537
 20
96.14457393183045
 11
877.9249342153486
 21
96.15191204445546
 72
     1
 10
877.9249342153486
 20
96.15191204445546
 11
877.9041194993636
 21
96.16438045495044
 72
     1
 10
877.9041194993636
 20
96.16438045495044
 11
877.8836238317536
 21
96.17793362992046
 72
     1
 10
877.8836238317536
 20
96.17793362992046
 11
877.8664845530485
 21
96.19305652289547
 72
     1
 10
877.8664845530485
 20
96.19305652289547
 11
877.8526250916385
 21
96.20976189581046
 72
     1
 10
877.8526250916385
 20
96.20976189581046
 11
877.8396717276136
 21
96.23057661179544
 72
     1
 10
877.8396717276136
 20
96.23057661179544
 11
877.8320018046786
 21
96.24677150731045
 72
     1
 10
877.8320018046786
 20
96.24677150731045
 11
877.8294621796137
 21
96.25843591590047
 72
     1
 10
877.8294621796137
 20
96.25843591590047
 11
877.8162280530187
 21
96.29910820274545
 72
     1
 10
877.8162280530187
 20
96.29910820274545
 11
877.7954260989686
 21
96.33786619934046
 72
     1
 10
877.7954260989686
 20
96.33786619934046
 11
877.7670563174636
 21
96.37470990568544
 72
     1
 10
877.7670563174636
 20
96.37470990568544
 11
877.7328670935984
 21
96.40528750194546
 72
     1
 10
877.7328670935984
 20
96.40528750194546
 11
877.6802623975285
 21
96.44121234897045
 72
     1
 10
877.6802623975285
 20
96.44121234897045
 11
877.6091911815138
 21
96.48248444676045
 72
     1
 10
877.6091911815138
 20
96.48248444676045
 11
877.6019041166286
 21
96.48437321314046
 72
     1
 10
877.6019041166286
 20
96.48437321314046
 11
877.5931494292185
 21
96.49005227421547
 72
     1
 10
877.5931494292185
 20
96.49005227421547
 11
877.5827101663887
 21
96.49950886805044
 72
     1
 10
877.5827101663887
 20
96.49950886805044
 11
877.5877766545836
 21
96.50845498448545
 72
     1
 10
877.5877766545836
 20
96.50845498448545
 11
877.6030271669085
 21
96.51718414802544
 72
     1
 10
877.6030271669085
 20
96.51718414802544
 11
877.6285893227136
 21
96.52549216771047
 72
     1
 10
877.6285893227136
 20
96.52549216771047
 11
877.6500293735137
 21
96.53180932553546
 72
     1
 10
877.6500293735137
 20
96.53180932553546
 11
877.6813471620036
 21
96.53558685829546
 72
     1
 10
877.6813471620036
 20
96.53558685829546
 11
877.7226447836635
 21
96.53683752792545
 72
     1
 10
877.7226447836635
 20
96.53683752792545
 11
877.7818856859337
 21
96.53386399707045
 72
     1
 10
877.7818856859337
 20
96.53386399707045
 11
877.8395441082635
 21
96.52499445224547
 72
     1
 10
877.8395441082635
 20
96.52499445224547
 11
877.8956328125886
 21
96.51036927473544
 72
     1
 10
877.8956328125886
 20
96.51036927473544
 11
877.9478291267388
 21
96.49245151799545
 72
     1
 10
877.9478291267388
 20
96.49245151799545
 11
877.9986343899736
 21
96.46609812222045
 72
     1
 10
877.9986343899736
 20
96.46609812222045
 11
878.0482783171235
 21
96.43143670676046
 72
     1
 10
878.0482783171235
 20
96.43143670676046
 11
878.0842031641485
 21
96.39081546765545
 72
     1
 10
878.0842031641485
 20
96.39081546765545
 11
878.1058218820385
 21
96.34463002489045
 72
     1
 10
878.1058218820385
 20
96.34463002489045
 11
878.1130451372487
 21
96.29295695007545
 72
     1
 10
878.1130451372487
 20
96.29295695007545
 11
878.1100333205886
 21
96.26383421440545
 72
     1
 10
878.1100333205886
 20
96.26383421440545
 11
878.1009468228686
 21
96.23513262259045
 72
     1
 10
878.1009468228686
 20
96.23513262259045
 11
878.0856580247386
 21
96.20694150817545
 72
     1
 10
878.0856580247386
 20
96.20694150817545
 11
878.0636054010587
 21
96.18330640455546
 72
     1
 10
878.0636054010587
 20
96.18330640455546
 11
878.0418463018836
 21
96.16535036201046
 72
     1
 10
878.0418463018836
 20
96.16535036201046
 11
878.0203934891485
 21
96.15303509473546
 97
        1
330
1D4
 75
     0
 76
     1
 98
        1
 10
864.5226044491478
 20
126.6865119998682
  0
LWPOLYLINE
  5
1CF
102
{ACAD_REACTORS
330
1CE
102
}
330
2
100
AcDbEntity
  8
STITEK_M
  6
Continuous
100
AcDbPolyline
 90
       41
 70
     0
 43
0.0
 10
877.4442644819426
 20
95.86928002428463
 10
877.409335223858
 20
95.90805846058797
 10
877.4000740506739
 20
95.92889777064048
 10
877.3955622549705
 20
95.95138865528225
 10
877.3959528572115
 20
95.97564893334535
 10
877.3974424172324
 20
96.00017528964807
 10
877.401969587375
 20
96.02257978689671
 10
877.4095071339941
 20
96.04293511901804
 10
877.4210565247972
 20
96.06456041932061
 10
877.4312467542571
 20
96.07930021518493
 10
877.4400786158839
 20
96.08733179930224
 10
877.4686847862241
 20
96.11912903255287
 10
877.4918492188501
 20
96.15652305150611
 10
877.509571913762
 20
96.19951385616175
 10
877.5189582769774
 20
96.24441139069453
 10
877.5237677590931
 20
96.30793081736195
 10
877.5239748362391
 20
96.39011634480374
 10
877.5219670234635
 20
96.39737151130326
 10
877.5225078909191
 20
96.40779282354003
 10
877.5254779099986
 20
96.42156178726501
 10
877.535758718194
 20
96.42164713799777
 10
877.5509436517358
 20
96.41280438867347
 10
877.5709196857407
 20
96.39482092221335
 10
877.587110530297
 20
96.37941187247468
 10
877.6060408638757
 20
96.35417863843199
 10
877.6277727863769
 20
96.31903918377354
 10
877.6548180842526
 20
96.26624829203706
 10
877.6759660442792
 20
96.21187986114476
 10
877.6913446211832
 20
96.15599302957893
 10
877.7019255457426
 20
96.10183081717108
 10
877.7045054671429
 20
96.04465547067613
 10
877.6993097643982
 20
95.98433186089065
 10
877.6820931629126
 20
95.93290941118743
 10
877.6529047551383
 20
95.89109433091493
 10
877.6117661872618
 20
95.85900227099747
 10
877.5850392500139
 20
95.84704921290162
 10
877.555639693513
 20
95.84056755485098
 10
877.5235810732038
 20
95.8397124852174
 10
877.4920861612077
 20
95.84699306573439
 10
877.4656562226248
 20
95.85685897711092
 10
877.4442644819426
 20
95.86928002428463
  0
LWPOLYLINE
  5
1D0
102
{ACAD_REACTORS
330
1CE
102
}
330
2
100
AcDbEntity
  8
STITEK_M
  6
Continuous
100
AcDbPolyline
 90
       41
 70
     0
 43
0.0
 10
876.9104608788765
 20
96.22634484515661
 10
876.9265793607921
 20
96.27598368814492
 10
876.9399961461029
 20
96.29442375441747
 10
876.9572179257044
 20
96.30957652643424
 10
876.9784232439306
 20
96.32136839400233
 10
877.0004084715615
 20
96.33234157533506
 10
877.022074920409
 20
96.3396231796087
 10
877.0434719284381
 20
96.34327313881504
 10
877.067974683266
 20
96.34408372313261
 10
877.0858348356611
 20
96.34262862348192
 10
877.0972063223528
 20
96.33899579900925
 10
877.1390466192881
 20
96.33012074541488
 10
877.1830130059642
 20
96.3287567677731
 10
877.229105482381
 20
96.33490386608375
 10
877.2726810694614
 20
96.34922380435652
 10
877.330095247647
 20
96.37681838399894
 10
877.4013735408081
 20
96.41773181365072
 10
877.4066527929177
 20
96.42309821377025
 10
877.4159483477831
 20
96.42784046493202
 10
877.4293576296924
 20
96.43215283482202
 10
877.4345719496929
 20
96.42329206911975
 10
877.4345063709098
 20
96.40572015625549
 10
877.4289202491097
 20
96.37942867011034
 10
877.4236710428658
 20
96.35770246254667
 10
877.4112835879547
 20
96.32869169574398
 10
877.3917178887959
 20
96.29230157145554
 10
877.3595222844017
 20
96.24248421057405
 10
877.3230118220983
 20
96.19698532450676
 10
877.2823016946771
 20
96.15572367045093
 10
877.2406863050864
 20
96.11947921478304
 10
877.1924609632518
 20
96.08865726406314
 10
877.1376213333574
 20
96.06299506973764
 10
877.0844798848468
 20
96.0521938591394
 10
877.0336727591823
 20
96.05656422163193
 10
876.9853109360957
 20
96.07614523652948
 10
876.9615958155078
 20
96.09331491410358
 10
876.941282756727
 20
96.11553484786796
 10
876.9245129345476
 20
96.14287089264941
 10
876.9150706462317
 20
96.17378657678637
 10
876.9103998068237
 20
96.20160853070792
 10
876.9104608788765
 20
96.22634484515661
  0
LWPOLYLINE
  5
1D1
102
{ACAD_REACTORS
330
1CE
102
}
330
2
100
AcDbEntity
  8
STITEK_M
  6
Continuous
100
AcDbPolyline
 90
       41
 70
     0
 43
0.0
 10
876.9527862830166
 20
96.86716473647944
 10
877.0038340230167
 20
96.87802514316445
 10
877.0265119815114
 20
96.87562589938444
 10
877.0482455568165
 20
96.86828778675945
 10
877.0690602728016
 20
96.85581937626444
 10
877.0895559404117
 20
96.84226620129443
 10
877.1066952191166
 20
96.82714330831943
 10
877.1205546805266
 20
96.81043793540444
 10
877.1335080445515
 20
96.78962321941945
 10
877.1411779674865
 20
96.77342832390444
 10
877.1437175925516
 20
96.76176391531443
 10
877.1569517191464
 20
96.72109162846943
 10
877.1777536731965
 20
96.68233363187443
 10
877.2061234547015
 20
96.64548992552944
 10
877.2403126785667
 20
96.61491232926945
 10
877.2929173746366
 20
96.57898748224445
 10
877.3639885906515
 20
96.53771538445445
 10
877.3712756555365
 20
96.53582661807444
 10
877.3800303429466
 20
96.53014755699944
 10
877.3904696057766
 20
96.52069096316445
 10
877.3854031175815
 20
96.51174484672944
 10
877.3701526052565
 20
96.50301568318944
 10
877.3445904494515
 20
96.49470766350443
 10
877.3231503986515
 20
96.48839050567943
 10
877.2918326101615
 20
96.48461297291945
 10
877.2505349885015
 20
96.48336230328943
 10
877.1912940862314
 20
96.48633583414444
 10
877.1336356639016
 20
96.49520537896943
 10
877.0775469595765
 20
96.50983055647945
 10
877.0253506454265
 20
96.52774831321943
 10
876.9745453821915
 20
96.55410170899443
 10
876.9249014550416
 20
96.58876312445443
 10
876.8889766080166
 20
96.62938436355943
 10
876.8673578901266
 20
96.67556980632443
 10
876.8601346349166
 20
96.72724288113945
 10
876.8631464515765
 20
96.75636561680944
 10
876.8722329492964
 20
96.78506720862444
 10
876.8875217474265
 20
96.81325832303944
 10
876.9095743711064
 20
96.83689342665942
 10
876.9313334702815
 20
96.85484946920444
 10
876.9527862830166
 20
96.86716473647944
  0
LWPOLYLINE
  5
1D2
102
{ACAD_REACTORS
330
1CE
102
}
330
2
100
AcDbEntity
  8
STITEK_M
  6
Continuous
100
AcDbPolyline
 90
       41
 70
     0
 43
0.0
 10
877.5289152902224
 20
97.1509198069303
 10
877.5638445483071
 20
97.11214137062695
 10
877.5731057214912
 20
97.09130206057441
 10
877.5776175171948
 20
97.06881117593265
 10
877.5772269149538
 20
97.04455089786955
 10
877.5757373549327
 20
97.02002454156682
 10
877.5712101847902
 20
96.99762004431818
 10
877.563672638171
 20
96.97726471219684
 10
877.552123247368
 20
96.95563941189428
 10
877.5419330179079
 20
96.94089961602998
 10
877.5331011562812
 20
96.93286803191265
 10
877.504494985941
 20
96.90107079866201
 10
877.481330553315
 20
96.86367677970878
 10
877.4636078584032
 20
96.82068597505315
 10
877.4542214951878
 20
96.77578844052037
 10
877.4494120130722
 20
96.71226901385296
 10
877.449204935926
 20
96.63008348641117
 10
877.4512127487016
 20
96.62282831991163
 10
877.450671881246
 20
96.61240700767487
 10
877.4477018621666
 20
96.59863804394987
 10
877.4374210539713
 20
96.59855269321713
 10
877.4222361204293
 20
96.60739544254141
 10
877.4022600864244
 20
96.62537890900154
 10
877.3860692418681
 20
96.64078795874022
 10
877.3671389082894
 20
96.66602119278289
 10
877.3454069857882
 20
96.70116064744135
 10
877.3183616879125
 20
96.75395153917783
 10
877.2972137278859
 20
96.80831997007013
 10
877.2818351509821
 20
96.86420680163596
 10
877.2712542264226
 20
96.91836901404384
 10
877.2686743050222
 20
96.97554436053875
 10
877.2738700077669
 20
97.03586797032425
 10
877.2910866092525
 20
97.08729042002746
 10
877.3202750170268
 20
97.12910550029995
 10
877.3614135849033
 20
97.1611975602174
 10
877.3881405221512
 20
97.17315061831328
 10
877.4175400786521
 20
97.17963227636392
 10
877.4495986989615
 20
97.18048734599747
 10
877.4810936109574
 20
97.1732067654805
 10
877.5075235495403
 20
97.16334085410398
 10
877.5289152902224
 20
97.1509198069303
  0
LWPOLYLINE
  5
1D3
102
{ACAD_REACTORS
330
1CE
102
}
330
2
100
AcDbEntity
  8
STITEK_M
  6
Continuous
100
AcDbPolyline
 90
       41
 70
     0
 43
0.0
 10
878.0627188932886
 20
96.79385498605828
 10
878.0466004113732
 20
96.74421614306996
 10
878.0331836260623
 20
96.72577607679741
 10
878.0159618464606
 20
96.71062330478065
 10
877.9947565282347
 20
96.69883143721257
 10
877.9727713006037
 20
96.68785825587983
 10
877.951104851756
 20
96.6805766516062
 10
877.929707843727
 20
96.67692669239986
 10
877.905205088899
 20
96.67611610808229
 10
877.887344936504
 20
96.67757120773297
 10
877.8759734498123
 20
96.68120403220566
 10
877.8341331528769
 20
96.69007908580002
 10
877.790166766201
 20
96.69144306344179
 10
877.7440742897841
 20
96.68529596513115
 10
877.7004987027039
 20
96.67097602685837
 10
877.6430845245181
 20
96.64338144721595
 10
877.571806231357
 20
96.60246801756416
 10
877.5665269792476
 20
96.59710161744465
 10
877.557231424382
 20
96.59235936628288
 10
877.5438221424726
 20
96.58804699639288
 10
877.5386078224721
 20
96.59690776209513
 10
877.5386734012553
 20
96.61447967495941
 10
877.5442595230554
 20
96.64077116110457
 10
877.5495087292993
 20
96.66249736866824
 10
877.5618961842104
 20
96.69150813547091
 10
877.5814618833692
 20
96.72789825975934
 10
877.6136574877636
 20
96.77771562064084
 10
877.6501679500668
 20
96.82321450670812
 10
877.690878077488
 20
96.86447616076396
 10
877.7324934670787
 20
96.90072061643185
 10
877.7807188089132
 20
96.93154256715175
 10
877.8355584388078
 20
96.95720476147727
 10
877.8886998873183
 20
96.96800597207548
 10
877.9395070129828
 20
96.96363560958296
 10
877.9878688360694
 20
96.94405459468541
 10
878.0115839566573
 20
96.9268849171113
 10
878.0318970154382
 20
96.90466498334693
 10
878.0486668376175
 20
96.87732893856548
 10
878.0581091259335
 20
96.84641325442852
 10
878.0627799653414
 20
96.81859130050698
 10
878.0627188932886
 20
96.79385498605828
  0
LWPOLYLINE
  5
1D4
102
{ACAD_REACTORS
330
1CE
102
}
330
2
100
AcDbEntity
  8
STITEK_M
  6
Continuous
100
AcDbPolyline
 90
       41
 70
     0
 43
0.0
 10
878.0203934891485
 20
96.15303509473546
 10
877.9693457491484
 20
96.14217468805046
 10
877.9466677906537
 20
96.14457393183045
 10
877.9249342153486
 20
96.15191204445546
 10
877.9041194993636
 20
96.16438045495044
 10
877.8836238317536
 20
96.17793362992046
 10
877.8664845530485
 20
96.19305652289547
 10
877.8526250916385
 20
96.20976189581046
 10
877.8396717276136
 20
96.23057661179544
 10
877.8320018046786
 20
96.24677150731045
 10
877.8294621796137
 20
96.25843591590047
 10
877.8162280530187
 20
96.29910820274545
 10
877.7954260989686
 20
96.33786619934046
 10
877.7670563174636
 20
96.37470990568544
 10
877.7328670935984
 20
96.40528750194546
 10
877.6802623975285
 20
96.44121234897045
 10
877.6091911815138
 20
96.48248444676045
 10
877.6019041166286
 20
96.48437321314046
 10
877.5931494292185
 20
96.49005227421547
 10
877.5827101663887
 20
96.49950886805044
 10
877.5877766545836
 20
96.50845498448545
 10
877.6030271669085
 20
96.51718414802544
 10
877.6285893227136
 20
96.52549216771047
 10
877.6500293735137
 20
96.53180932553546
 10
877.6813471620036
 20
96.53558685829546
 10
877.7226447836635
 20
96.53683752792545
 10
877.7818856859337
 20
96.53386399707045
 10
877.8395441082635
 20
96.52499445224547
 10
877.8956328125886
 20
96.51036927473544
 10
877.9478291267388
 20
96.49245151799545
 10
877.9986343899736
 20
96.46609812222045
 10
878.0482783171235
 20
96.43143670676046
 10
878.0842031641485
 20
96.39081546765545
 10
878.1058218820385
 20
96.34463002489045
 10
878.1130451372487
 20
96.29295695007545
 10
878.1100333205886
 20
96.26383421440545
 10
878.1009468228686
 20
96.23513262259045
 10
878.0856580247386
 20
96.20694150817545
 10
878.0636054010587
 20
96.18330640455546
 10
878.0418463018836
 20
96.16535036201046
 10
878.0203934891485
 20
96.15303509473546
  0
LINE
  5
1D5
330
2
100
AcDbEntity
  8
STITEK_M
100
AcDbLine
 10
878.0102509186944
 20
100.6752103590087
 30
0.0
 11
877.14422551491
 21
100.1752103590087
 31
0.0
  0
CIRCLE
  5
1D6
330
2
100
AcDbEntity
  8
STITEK_M
100
AcDbCircle
 10
876.2265695036228
 20
95.25348684090307
 30
0.0
 40
0.75
  0
HATCH
  5
1D7
330
2
100
AcDbEntity
  8
STITEK_M
100
AcDbHatch
 10
0.0
 20
0.0
 30
0.0
210
0.0
220
0.0
230
1.0
  2
SOLID
 70
     1
 71
     0
 91
        2
 92
        7
 72
     1
 73
     1
 93
        3
 10
875.710877510912
 20
95.79806169218969
 42
0.0254319493156449
 10
876.7692761410184
 20
94.73582912993302
 42
0.1927812359840292
 10
876.9765695036229
 20
95.25348684090307
 42
0.6583747069257302
 97
        0
 92
        7
 72
     1
 73
     1
 93
        3
 10
876.7692761410184
 20
94.73582912993302
 42
-0.0254319493156449
 10
875.710877510912
 20
95.79806169218969
 42
0.2060000623788857
 10
875.4765695036228
 20
95.25348684090307
 42
0.6767534059588244
 97
        0
 75
     0
 76
     1
 47
0.0116364263875448
 98
        2
 10
876.2537202243327
 20
95.6972683747108
 10
875.7647074054121
 20
94.76635429638736
  0
HATCH
  5
1D8
330
2
100
AcDbEntity
  8
STITEK_M
 62
   140
100
AcDbHatch
 10
0.0
 20
0.0
 30
0.0
210
0.0
220
0.0
230
1.0
  2
SOLID
 70
     1
 71
     1
 91
        1
 92
        1
 93
        5
 72
     1
 10
884.9186768069921
 20
90.8285824373155
 11
883.7876433166286
 21
90.8285824373155
 72
     1
 10
883.7876433166286
 20
90.8285824373155
 11
884.873841165978
 21
92.70993229946098
 72
     2
 10
885.3572573052018
 20
92.43083186134956
 40
0.5582008762228711
 50
210.0000000000005
 51
329.9999999999994
 73
     0
 72
     1
 10
885.8406734444256
 20
92.70993229946098
 11
885.9227740503836
 21
92.56772987860946
 72
     1
 10
885.9227740503836
 20
92.56772987860946
 11
884.9186768069921
 21
90.8285824373155
 97
        5
330
1D9
330
1DA
330
1DB
330
1DC
330
1DD
 75
     0
 76
     1
 98
        1
 10
893.4970083724738
 20
81.49579721332031
  0
LWPOLYLINE
  5
1D9
102
{ACAD_REACTORS
330
1D8
102
}
330
2
100
AcDbEntity
  8
STITEK_M
 62
   140
100
AcDbPolyline
 90
        2
 70
     0
 43
0.0
 10
884.9186768069921
 20
90.8285824373155
 10
883.7876433166286
 20
90.8285824373155
  0
LINE
  5
1DA
102
{ACAD_REACTORS
330
1D8
102
}
330
2
100
AcDbEntity
  8
STITEK_M
 62
   140
100
AcDbLine
 10
883.7876433166286
 20
90.8285824373155
 30
0.0
 11
884.873841165978
 21
92.70993229946098
 31
0.0
  0
ARC
  5
1DB
102
{ACAD_REACTORS
330
1D8
102
}
330
2
100
AcDbEntity
  8
STITEK_M
 62
   140
100
AcDbCircle
 10
885.3572573052018
 20
92.43083186134956
 30
0.0
 40
0.5582008762228711
100
AcDbArc
 50
30.00000000000054
 51
149.9999999999994
  0
LINE
  5
1DC
102
{ACAD_REACTORS
330
1D8
102
}
330
2
100
AcDbEntity
  8
STITEK_M
 62
   140
100
AcDbLine
 10
885.9227740503836
 20
92.56772987860946
 30
0.0
 11
885.8406734444256
 21
92.70993229946098
 31
0.0
  0
LINE
  5
1DD
102
{ACAD_REACTORS
330
1D8
102
}
330
2
100
AcDbEntity
  8
STITEK_M
 62
   140
100
AcDbLine
 10
884.9186768069921
 20
90.8285824373155
 30
0.0
 11
885.9227740503836
 21
92.56772987860946
 31
0.0
  0
HATCH
  5
1DE
330
2
100
AcDbEntity
  8
STITEK_M
 62
   140
100
AcDbHatch
 10
0.0
 20
0.0
 30
0.0
210
0.0
220
0.0
230
1.0
  2
SOLID
 70
     1
 71
     1
 91
        1
 92
        1
 93
        5
 72
     1
 10
885.1217290987227
 20
90.8285824373155
 11
886.2527625890862
 21
90.8285824373155
 72
     1
 10
886.2527625890862
 20
90.8285824373155
 11
887.2568598324777
 21
92.56772987860946
 72
     1
 10
887.2568598324777
 20
92.56772987860946
 11
887.1747592265196
 21
92.70993229946098
 72
     2
 10
886.691343087296
 20
92.43083186134956
 40
0.5582008762228711
 50
30.00000000000054
 51
149.9999999999994
 73
     1
 72
     1
 10
886.2079269480723
 20
92.70993229946098
 11
885.1217290987227
 21
90.8285824373155
 97
        5
330
1DF
330
1E0
330
1E1
330
1E2
330
1E3
 75
     0
 76
     1
 98
        1
 10
893.5658514666528
 20
81.49579721332031
  0
LINE
  5
1DF
102
{ACAD_REACTORS
330
1DE
102
}
330
2
100
AcDbEntity
  8
STITEK_M
 62
   140
100
AcDbLine
 10
885.1217290987227
 20
90.8285824373155
 30
0.0
 11
886.2527625890862
 21
90.8285824373155
 31
0.0
  0
LINE
  5
1E0
102
{ACAD_REACTORS
330
1DE
102
}
330
2
100
AcDbEntity
  8
STITEK_M
 62
   140
100
AcDbLine
 10
886.2527625890862
 20
90.8285824373155
 30
0.0
 11
887.2568598324777
 21
92.56772987860946
 31
0.0
  0
LINE
  5
1E1
102
{ACAD_REACTORS
330
1DE
102
}
330
2
100
AcDbEntity
  8
STITEK_M
 62
   140
100
AcDbLine
 10
887.2568598324777
 20
92.56772987860946
 30
0.0
 11
887.1747592265196
 21
92.70993229946098
 31
0.0
  0
ARC
  5
1E2
102
{ACAD_REACTORS
330
1DE
102
}
330
2
100
AcDbEntity
  8
STITEK_M
 62
   140
100
AcDbCircle
 10
886.691343087296
 20
92.43083186134956
 30
0.0
 40
0.5582008762228711
100
AcDbArc
 50
30.00000000000054
 51
149.9999999999994
  0
LINE
  5
1E3
102
{ACAD_REACTORS
330
1DE
102
}
330
2
100
AcDbEntity
  8
STITEK_M
 62
   140
100
AcDbLine
 10
885.1217290987227
 20
90.8285824373155
 30
0.0
 11
886.2079269480723
 21
92.70993229946098
 31
0.0
  0
HATCH
  5
1E4
330
2
100
AcDbEntity
  8
STITEK_M
 62
   140
100
AcDbHatch
 10
0.0
 20
0.0
 30
0.0
210
0.0
220
0.0
230
1.0
  2
SOLID
 70
     1
 71
     1
 91
        1
 92
        1
 93
        5
 72
     1
 10
886.4558148808169
 20
90.8285824373155
 11
887.5868483711803
 21
90.8285824373155
 72
     1
 10
887.5868483711803
 20
90.8285824373155
 11
888.5909456145718
 21
92.56772987860946
 72
     1
 10
888.5909456145718
 20
92.56772987860946
 11
888.5088450086138
 21
92.70993229946098
 72
     2
 10
888.0254288693901
 20
92.43083186134956
 40
0.5582008762228711
 50
30.00000000000054
 51
149.9999999999994
 73
     1
 72
     1
 10
887.5420127301664
 20
92.70993229946098
 11
886.4558148808169
 21
90.8285824373155
 97
        5
330
1E5
330
1E6
330
1E7
330
1E8
330
1E9
 75
     0
 76
     1
 98
        1
 10
893.6346945608319
 20
81.49579721332031
  0
LINE
  5
1E5
102
{ACAD_REACTORS
330
1E4
102
}
330
2
100
AcDbEntity
  8
STITEK_M
 62
   140
100
AcDbLine
 10
886.4558148808169
 20
90.8285824373155
 30
0.0
 11
887.5868483711803
 21
90.8285824373155
 31
0.0
  0
LINE
  5
1E6
102
{ACAD_REACTORS
330
1E4
102
}
330
2
100
AcDbEntity
  8
STITEK_M
 62
   140
100
AcDbLine
 10
887.5868483711803
 20
90.8285824373155
 30
0.0
 11
888.5909456145718
 21
92.56772987860946
 31
0.0
  0
LINE
  5
1E7
102
{ACAD_REACTORS
330
1E4
102
}
330
2
100
AcDbEntity
  8
STITEK_M
 62
   140
100
AcDbLine
 10
888.5909456145718
 20
92.56772987860946
 30
0.0
 11
888.5088450086138
 21
92.70993229946098
 31
0.0
  0
ARC
  5
1E8
102
{ACAD_REACTORS
330
1E4
102
}
330
2
100
AcDbEntity
  8
STITEK_M
 62
   140
100
AcDbCircle
 10
888.0254288693901
 20
92.43083186134956
 30
0.0
 40
0.5582008762228711
100
AcDbArc
 50
30.00000000000054
 51
149.9999999999994
  0
LINE
  5
1E9
102
{ACAD_REACTORS
330
1E4
102
}
330
2
100
AcDbEntity
  8
STITEK_M
 62
   140
100
AcDbLine
 10
886.4558148808169
 20
90.8285824373155
 30
0.0
 11
887.5420127301664
 21
92.70993229946098
 31
0.0
  0
LWPOLYLINE
  5
1EA
330
2
100
AcDbEntity
  8
STITEK_M
100
AcDbPolyline
 90
        2
 70
     0
 43
0.15
 10
881.9252337422424
 20
97.44670194874615
 10
881.1752337422424
 20
96.14766384306946
  0
TEXT
  5
1EB
330
2
100
AcDbEntity
  8
STITEK_M
  6
Continuous
100
AcDbText
 10
883.0944262373645
 20
98.61918802607801
 30
0.0
 40
1.1
  1
5
 50
149.9999999999994
  7
ARIAL
 72
     1
 11
882.1743569234486
 21
97.88021969992334
 31
0.0
100
AcDbText
 73
     3
  0
LINE
  5
1ED
330
2
100
AcDbEntity
  8
STITEK_M
100
AcDbLine
 10
879.0115546311245
 20
99.24663754917819
 30
0.0
 11
878.2455101880055
 21
98.60384993949166
 31
0.0
  0
LINE
  5
1EE
330
2
100
AcDbEntity
  8
STITEK_M
100
AcDbLine
 10
880.2457153553371
 20
98.01364253526925
 30
0.0
 11
879.6029277456504
 21
97.24759809215028
 31
0.0
  0
LINE
  5
1EF
330
2
100
AcDbEntity
  8
STITEK_M
100
AcDbLine
 10
878.0055221329909
 20
110.6834008561054
 30
0.0
 11
877.1394967292065
 21
111.1834008561054
 31
0.0
  0
TEXT
  5
1F0
330
2
100
AcDbEntity
  8
STITEK_M
  6
Continuous
100
AcDbText
 10
879.0428205297381
 20
103.4652287751397
 30
0.0
 40
1.1
  1
10
 50
99.99999999999861
  7
ARIAL
 72
     1
 11
877.8111255881922
 21
104.1158703729865
 31
0.0
100
AcDbText
 73
     3
  0
LINE
  5
1F1
330
2
100
AcDbEntity
  8
STITEK_M
100
AcDbLine
 10
876.8182690020585
 20
107.4166479528465
 30
0.0
 11
875.8334612490465
 21
107.5902961305134
 31
0.0
  0
LINE
  5
1F2
330
2
100
AcDbEntity
  8
STITEK_M
100
AcDbLine
 10
877.268993644737
 20
109.1019599993221
 30
0.0
 11
876.3293010239511
 21
109.4439801426477
 31
0.0
  0
LINE
  5
1F3
330
2
100
AcDbEntity
  8
STITEK_M
100
AcDbLine
 10
877.2722283246652
 20
102.2559545028269
 30
0.0
 11
876.3325357038793
 21
101.9139343595012
 31
0.0
  0
LWPOLYLINE
  5
1F4
330
2
100
AcDbEntity
  8
STITEK_M
100
AcDbPolyline
 90
        2
 70
     0
 43
0.15
 10
877.3187649833555
 20
104.0288012349125
 10
875.8351035390864
 20
103.7671916920509
  0
LINE
  5
1F5
330
2
100
AcDbEntity
  8
STITEK_M
100
AcDbLine
 10
876.6670432451459
 20
105.6786720704018
 30
0.0
 11
875.6670432451457
 21
105.6786720704018
 31
0.0
  0
LWPOLYLINE
  5
1F6
330
2
100
AcDbEntity
  8
STITEK_M
 62
    84
100
AcDbPolyline
 90
        2
 70
     1
 43
0.25
 10
872.8418533251817
 20
111.0980178189595
 42
1.0
 10
873.0918533251818
 20
111.0980178189595
 42
1.0
  0
TEXT
  5
1F7
330
2
100
AcDbEntity
  8
STITEK_M
  6
Continuous
100
AcDbText
 10
874.4192058531517
 20
110.0100110190213
 30
0.0
 40
0.89
  1
I
  7
ARIAL_T
 72
     4
 11
874.5919241341885
 21
110.4550110190213
 31
0.0
100
AcDbText
  0
TEXT
  5
1F8
330
2
100
AcDbEntity
  8
STITEK_M
  6
Continuous
100
AcDbText
 10
884.9117617095002
 20
104.5584008561054
 30
0.0
 40
2.25
  1
°C
  7
ARIAL
 72
     4
 11
886.6752337422424
 21
105.6834008561054
 31
0.0
100
AcDbText
  0
TEXT
  5
1F9
330
2
100
AcDbEntity
  8
STITEK_M
  6
Continuous
100
AcDbText
 10
880.0754177783741
 20
110.0988070262297
 30
0.0
 40
1.1
  1
15
 50
49.99999999999741
  7
ARIAL
 72
     1
 11
879.7821199115274
 21
111.4605644492612
 31
0.0
100
AcDbText
 73
     3
  0
LWPOLYLINE
  5
1FA
330
2
100
AcDbEntity
  8
STITEK_M
100
AcDbPolyline
 90
        2
 70
     0
 43
0.15
 10
879.3994291278275
 20
111.7823528332517
 10
878.2394309782873
 20
112.7557068526973
  0
HATCH
  5
1FB
330
2
100
AcDbEntity
  8
STITEK_M
  6
Continuous
100
AcDbHatch
 10
0.0
 20
0.0
 30
0.0
210
0.0
220
0.0
230
1.0
  2
SOLID
 70
     1
 71
     1
 91
        1
 92
        1
 93
       34
 72
     1
 10
897.0643995492915
 20
97.68507050652681
 11
897.1069988883215
 21
97.62468103010682
 72
     1
 10
897.1069988883215
 20
97.62468103010682
 11
896.9276554157666
 21
97.4711166662518
 72
     1
 10
896.9276554157666
 20
97.4711166662518
 11
896.7354606746665
 21
97.27084362029682
 72
     1
 10
896.7354606746665
 20
97.27084362029682
 11
896.5304529508266
 21
97.02375979676181
 72
     1
 10
896.5304529508266
 20
97.02375979676181
 11
896.3354122982217
 21
96.75891135970681
 72
     1
 10
896.3354122982217
 20
96.75891135970681
 11
896.1738079153164
 21
96.50612295122682
 72
     1
 10
896.1738079153164
 20
96.50612295122682
 11
896.0457546595264
 21
96.26527971390681
 72
     1
 10
896.0457546595264
 20
96.26527971390681
 11
895.9560127326065
 21
96.20449461750181
 72
     1
 10
895.9560127326065
 20
96.20449461750181
 11
895.8895613370616
 21
96.15730098187183
 72
     1
 10
895.8895613370616
 20
96.15730098187183
 11
895.8391006460715
 21
96.11901517687181
 72
     1
 10
895.8391006460715
 20
96.11901517687181
 11
895.8046306596365
 21
96.08948405928183
 72
     1
 10
895.8046306596365
 20
96.08948405928183
 11
895.7900310059965
 21
96.1355291207618
 72
     1
 10
895.7900310059965
 20
96.1355291207618
 11
895.7669701894515
 21
96.1976925061468
 72
     1
 10
895.7669701894515
 20
96.1976925061468
 11
895.7355503054817
 21
96.27603802511183
 72
     1
 10
895.7355503054817
 20
96.27603802511183
 11
895.7016290822517
 21
96.35502164082682
 72
     1
 10
895.7016290822517
 20
96.35502164082682
 11
895.6543588750117
 21
96.45813807562682
 72
     1
 10
895.6543588750117
 20
96.45813807562682
 11
895.6092837205915
 21
96.54167770213682
 72
     1
 10
895.6092837205915
 20
96.54167770213682
 11
895.5664291428615
 21
96.60564052035681
 72
     1
 10
895.5664291428615
 20
96.60564052035681
 11
895.5232810406267
 21
96.65374025337181
 72
     1
 10
895.5232810406267
 20
96.65374025337181
 11
895.4766361682015
 21
96.68972891007181
 72
     1
 10
895.4766361682015
 20
96.68972891007181
 11
895.4265966210666
 21
96.71355544271682
 72
     1
 10
895.4265966210666
 20
96.71355544271682
 11
895.5114124410764
 21
96.79038229141681
 72
     1
 10
895.5114124410764
 20
96.79038229141681
 11
895.5913532019165
 21
96.83640182902681
 72
     1
 10
895.5913532019165
 20
96.83640182902681
 11
895.6665082371316
 21
96.85172891296181
 72
     1
 10
895.6665082371316
 20
96.85172891296181
 11
895.7308666753366
 21
96.82358884628683
 72
     1
 10
895.7308666753366
 20
96.82358884628683
 11
895.7999470294915
 21
96.73911759852181
 72
     1
 10
895.7999470294915
 20
96.73911759852181
 11
895.8737237757265
 21
96.59820031225182
 72
     1
 10
895.8737237757265
 20
96.59820031225182
 11
895.9113459601065
 21
96.51338449224182
 72
     1
 10
895.9113459601065
 20
96.51338449224182
 11
896.0607626950865
 21
96.74155512810681
 72
     1
 10
896.0607626950865
 20
96.74155512810681
 11
896.2360095865065
 21
96.96532289639682
 72
     1
 10
896.2360095865065
 20
96.96532289639682
 11
896.4369973008215
 21
97.18464951130682
 72
     1
 10
896.4369973008215
 20
97.18464951130682
 11
896.6494835185715
 21
97.3852543675718
 72
     1
 10
896.6494835185715
 20
97.3852543675718
 11
896.8585495377416
 21
97.55202733415181
 72
     1
 10
896.8585495377416
 20
97.55202733415181
 11
897.0643995492915
 21
97.68507050652681
 97
        1
330
1FC
 75
     0
 76
     1
 98
        1
 10
864.5226044491478
 20
126.6865119998682
  0
LWPOLYLINE
  5
1FC
102
{ACAD_REACTORS
330
1FB
102
}
330
2
100
AcDbEntity
  8
STITEK_M
  6
Continuous
100
AcDbPolyline
 90
       35
 70
     0
 43
0.0
 10
897.0643995492915
 20
97.68507050652681
 10
897.1069988883215
 20
97.62468103010682
 10
896.9276554157666
 20
97.4711166662518
 10
896.7354606746665
 20
97.27084362029682
 10
896.5304529508266
 20
97.02375979676181
 10
896.3354122982217
 20
96.75891135970681
 10
896.1738079153164
 20
96.50612295122682
 10
896.0457546595264
 20
96.26527971390681
 10
895.9560127326065
 20
96.20449461750181
 10
895.8895613370616
 20
96.15730098187183
 10
895.8391006460715
 20
96.11901517687181
 10
895.8046306596365
 20
96.08948405928183
 10
895.7900310059965
 20
96.1355291207618
 10
895.7669701894515
 20
96.1976925061468
 10
895.7355503054817
 20
96.27603802511183
 10
895.7016290822517
 20
96.35502164082682
 10
895.6543588750117
 20
96.45813807562682
 10
895.6092837205915
 20
96.54167770213682
 10
895.5664291428615
 20
96.60564052035681
 10
895.5232810406267
 20
96.65374025337181
 10
895.4766361682015
 20
96.68972891007181
 10
895.4265966210666
 20
96.71355544271682
 10
895.5114124410764
 20
96.79038229141681
 10
895.5913532019165
 20
96.83640182902681
 10
895.6665082371316
 20
96.85172891296181
 10
895.7308666753366
 20
96.82358884628683
 10
895.7999470294915
 20
96.73911759852181
 10
895.8737237757265
 20
96.59820031225182
 10
895.9113459601065
 20
96.51338449224182
 10
896.0607626950865
 20
96.74155512810681
 10
896.2360095865065
 20
96.96532289639682
 10
896.4369973008215
 20
97.18464951130682
 10
896.6494835185715
 20
97.3852543675718
 10
896.8585495377416
 20
97.55202733415181
 10
897.0643995492915
 20
97.68507050652681
  0
LINE
  5
1FD
330
2
100
AcDbEntity
  8
STITEK_M
100
AcDbLine
 10
893.1119970491698
 20
98.0197217449875
 30
0.0
 11
893.7547846588563
 21
97.25367730186853
 31
0.0
  0
LINE
  5
1FE
330
2
100
AcDbEntity
  8
STITEK_M
100
AcDbLine
 10
894.3449920630786
 20
99.25388246920006
 30
0.0
 11
895.1110365061976
 21
98.61109485951352
 31
0.0
  0
LWPOLYLINE
  5
1FF
330
2
100
AcDbEntity
  8
STITEK_M
100
AcDbPolyline
 90
        2
 70
     0
 43
0.15
 10
891.4334218855056
 20
97.45143481140921
 10
892.1834242393392
 20
96.15239262877308
  0
TEXT
  5
200
330
2
100
AcDbEntity
  8
STITEK_M
  6
Continuous
100
AcDbText
 10
891.3725366679525
 20
99.26380195996205
 30
0.0
 40
1.1
  1
35
 50
210.0000000000004
  7
ARIAL
 72
     1
 11
891.1823980401207
 21
97.8838547797828
 31
0.0
100
AcDbText
 73
     3
  0
TEXT
  5
201
330
2
100
AcDbEntity
  8
STITEK_M
 62
   140
100
AcDbText
 10
889.3888364669706
 20
92.62424271002116
 30
0.0
 40
0.5117539744274909
  1
R
  7
FUTURA_XXL
100
AcDbText
  0
CIRCLE
  5
203
330
2
100
AcDbEntity
  8
STITEK_M
100
AcDbCircle
 10
897.1238979808619
 20
95.25348684090307
 30
0.0
 40
0.75
  0
HATCH
  5
204
330
2
100
AcDbEntity
  8
STITEK_M
100
AcDbHatch
 10
0.0
 20
0.0
 30
0.0
210
0.0
220
0.0
230
1.0
  2
SOLID
 70
     1
 71
     0
 91
        2
 92
        7
 72
     1
 73
     1
 93
        3
 10
897.6395899735731
 20
95.79806169218969
 42
-0.0254319493156449
 10
896.5811913434665
 20
94.73582912993302
 42
-0.1927812359840292
 10
896.3738979808621
 20
95.25348684090307
 42
-0.6583747069257302
 97
        0
 92
        7
 72
     1
 73
     1
 93
        3
 10
896.5811913434665
 20
94.73582912993302
 42
0.0254319493156449
 10
897.6395899735731
 20
95.79806169218969
 42
-0.2060000623788857
 10
897.8738979808619
 20
95.25348684090307
 42
-0.6767534059588244
 97
        0
 75
     0
 76
     1
 47
0.0116364263875448
 98
        2
 10
897.0967472601522
 20
95.6972683747108
 10
897.5857600790728
 20
94.76635429638736
  0
LINE
  5
205
330
2
100
AcDbEntity
  8
STITEK_M
100
AcDbLine
 10
895.344945351494
 20
100.6834008561054
 30
0.0
 11
896.2109707552784
 21
100.1834008561054
 31
0.0
  0
HATCH
  5
206
330
2
100
AcDbEntity
  8
STITEK_M
  6
Continuous
100
AcDbHatch
 10
0.0
 20
0.0
 30
0.0
210
0.0
220
0.0
230
1.0
  2
SOLID
 70
     1
 71
     1
 91
        2
 92
       16
 93
        1
 72
     2
 10
898.7597703691394
 20
110.4565126914728
 40
0.3713489467903379
 50
0.0
 51
360.0
 73
     1
 97
        1
330
207
 92
        1
 93
       18
 72
     1
 10
898.8880279228865
 20
110.8088974242676
 11
898.7597703691394
 21
111.0968236371953
 72
     1
 10
898.7597703691392
 20
111.0968236371953
 11
898.6319002329663
 21
110.8078330032311
 72
     1
 10
898.6319002329663
 20
110.8078330032311
 11
898.3486251214547
 21
110.9464965174791
 72
     1
 10
898.3486251214547
 20
110.9464965174791
 11
898.4350108427202
 21
110.6440126914728
 72
     1
 10
898.4350108427202
 20
110.6440126914728
 11
898.1291862930852
 21
110.567696459349
 72
     1
 10
898.1291862930852
 20
110.567696459349
 11
898.3904674617598
 21
110.3913946248477
 72
     1
 10
898.3904674617598
 20
110.3913946248477
 11
898.205427184461
 21
110.1364625045753
 72
     1
 10
898.205427184461
 20
110.1364625045753
 11
898.5187250155069
 21
110.1692460253032
 72
     1
 10
898.5187250155069
 20
110.1692460253032
 11
898.5410590246566
 21
109.8556082111275
 72
     1
 10
898.5410590246566
 20
109.8556082111275
 11
898.7597703691394
 21
110.0826454246803
 72
     1
 10
898.7597703691394
 20
110.0826454246803
 11
898.9786102232278
 21
109.8552551338882
 72
     1
 10
898.9786102232278
 20
109.8552551338882
 11
899.0008157227718
 21
110.1692460253032
 72
     1
 10
899.0008157227718
 20
110.1692460253032
 11
899.3142636829544
 21
110.1364625045753
 72
     1
 10
899.3142636829544
 20
110.1364625045753
 11
899.129073276519
 21
110.3913946248477
 72
     1
 10
899.129073276519
 20
110.3913946248477
 11
899.3903535528254
 21
110.5677015203377
 72
     1
 10
899.3903535528254
 20
110.5677015203377
 11
899.0845298955585
 21
110.6440126914728
 72
     1
 10
899.0845298955585
 20
110.6440126914728
 11
899.1715398581652
 21
110.9468635812645
 72
     1
 10
899.1715398581652
 20
110.9468635812645
 11
898.8880279228865
 21
110.8088974242676
 97
       18
330
208
330
209
330
20A
330
20B
330
20C
330
20D
330
20E
330
20F
330
210
330
211
330
212
330
213
330
214
330
215
330
216
330
217
330
218
330
219
 75
     0
 76
     1
 98
        1
 10
864.5226044491478
 20
126.6865119998682
  0
CIRCLE
  5
207
102
{ACAD_REACTORS
330
206
102
}
330
2
100
AcDbEntity
  8
STITEK_M
  6
Continuous
100
AcDbCircle
 10
898.7597703691394
 20
110.4565126914728
 30
0.0
 40
0.3713489467903379
  0
LINE
  5
208
102
{ACAD_REACTORS
330
206
102
}
330
2
100
AcDbEntity
  8
STITEK_M
  6
Continuous
100
AcDbLine
 10
898.8880279228865
 20
110.8088974242676
 30
0.0
 11
898.7597703691394
 21
111.0968236371953
 31
0.0
  0
LINE
  5
209
102
{ACAD_REACTORS
330
206
102
}
330
2
100
AcDbEntity
  8
STITEK_M
  6
Continuous
100
AcDbLine
 10
898.7597703691392
 20
111.0968236371953
 30
0.0
 11
898.6319002329663
 21
110.8078330032311
 31
0.0
  0
LINE
  5
20A
102
{ACAD_REACTORS
330
206
102
}
330
2
100
AcDbEntity
  8
STITEK_M
  6
Continuous
100
AcDbLine
 10
898.6319002329663
 20
110.8078330032311
 30
0.0
 11
898.3486251214547
 21
110.9464965174791
 31
0.0
  0
LINE
  5
20B
102
{ACAD_REACTORS
330
206
102
}
330
2
100
AcDbEntity
  8
STITEK_M
  6
Continuous
100
AcDbLine
 10
898.3486251214547
 20
110.9464965174791
 30
0.0
 11
898.4350108427202
 21
110.6440126914728
 31
0.0
  0
LINE
  5
20C
102
{ACAD_REACTORS
330
206
102
}
330
2
100
AcDbEntity
  8
STITEK_M
  6
Continuous
100
AcDbLine
 10
898.4350108427202
 20
110.6440126914728
 30
0.0
 11
898.1291862930852
 21
110.567696459349
 31
0.0
  0
LINE
  5
20D
102
{ACAD_REACTORS
330
206
102
}
330
2
100
AcDbEntity
  8
STITEK_M
  6
Continuous
100
AcDbLine
 10
898.1291862930852
 20
110.567696459349
 30
0.0
 11
898.3904674617598
 21
110.3913946248477
 31
0.0
  0
LINE
  5
20E
102
{ACAD_REACTORS
330
206
102
}
330
2
100
AcDbEntity
  8
STITEK_M
  6
Continuous
100
AcDbLine
 10
898.3904674617598
 20
110.3913946248477
 30
0.0
 11
898.205427184461
 21
110.1364625045753
 31
0.0
  0
LINE
  5
20F
102
{ACAD_REACTORS
330
206
102
}
330
2
100
AcDbEntity
  8
STITEK_M
  6
Continuous
100
AcDbLine
 10
898.205427184461
 20
110.1364625045753
 30
0.0
 11
898.5187250155069
 21
110.1692460253032
 31
0.0
  0
LINE
  5
210
102
{ACAD_REACTORS
330
206
102
}
330
2
100
AcDbEntity
  8
STITEK_M
  6
Continuous
100
AcDbLine
 10
898.5187250155069
 20
110.1692460253032
 30
0.0
 11
898.5410590246566
 21
109.8556082111275
 31
0.0
  0
LINE
  5
211
102
{ACAD_REACTORS
330
206
102
}
330
2
100
AcDbEntity
  8
STITEK_M
  6
Continuous
100
AcDbLine
 10
898.5410590246566
 20
109.8556082111275
 30
0.0
 11
898.7597703691394
 21
110.0826454246803
 31
0.0
  0
LINE
  5
212
102
{ACAD_REACTORS
330
206
102
}
330
2
100
AcDbEntity
  8
STITEK_M
  6
Continuous
100
AcDbLine
 10
898.7597703691394
 20
110.0826454246803
 30
0.0
 11
898.9786102232278
 21
109.8552551338882
 31
0.0
  0
LINE
  5
213
102
{ACAD_REACTORS
330
206
102
}
330
2
100
AcDbEntity
  8
STITEK_M
  6
Continuous
100
AcDbLine
 10
898.9786102232278
 20
109.8552551338882
 30
0.0
 11
899.0008157227718
 21
110.1692460253032
 31
0.0
  0
LINE
  5
214
102
{ACAD_REACTORS
330
206
102
}
330
2
100
AcDbEntity
  8
STITEK_M
  6
Continuous
100
AcDbLine
 10
899.0008157227718
 20
110.1692460253032
 30
0.0
 11
899.3142636829544
 21
110.1364625045753
 31
0.0
  0
LINE
  5
215
102
{ACAD_REACTORS
330
206
102
}
330
2
100
AcDbEntity
  8
STITEK_M
  6
Continuous
100
AcDbLine
 10
899.3142636829544
 20
110.1364625045753
 30
0.0
 11
899.129073276519
 21
110.3913946248477
 31
0.0
  0
LINE
  5
216
102
{ACAD_REACTORS
330
206
102
}
330
2
100
AcDbEntity
  8
STITEK_M
  6
Continuous
100
AcDbLine
 10
899.129073276519
 20
110.3913946248477
 30
0.0
 11
899.3903535528254
 21
110.5677015203377
 31
0.0
  0
LINE
  5
217
102
{ACAD_REACTORS
330
206
102
}
330
2
100
AcDbEntity
  8
STITEK_M
  6
Continuous
100
AcDbLine
 10
899.3903535528254
 20
110.5677015203377
 30
0.0
 11
899.0845298955585
 21
110.6440126914728
 31
0.0
  0
LINE
  5
218
102
{ACAD_REACTORS
330
206
102
}
330
2
100
AcDbEntity
  8
STITEK_M
  6
Continuous
100
AcDbLine
 10
899.0845298955585
 20
110.6440126914728
 30
0.0
 11
899.1715398581652
 21
110.9468635812645
 31
0.0
  0
LINE
  5
219
102
{ACAD_REACTORS
330
206
102
}
330
2
100
AcDbEntity
  8
STITEK_M
  6
Continuous
100
AcDbLine
 10
899.1715398581652
 20
110.9468635812645
 30
0.0
 11
898.8880279228865
 21
110.8088974242676
 31
0.0
  0
LWPOLYLINE
  5
21A
330
2
100
AcDbEntity
  8
STITEK_M
 62
    84
100
AcDbPolyline
 90
        2
 70
     1
 43
0.25
 10
900.5086141593032
 20
111.0980178189595
 42
-1.0
 10
900.2586141593031
 20
111.0980178189595
 42
-1.0
  0
LINE
  5
21B
330
2
100
AcDbEntity
  8
STITEK_M
100
AcDbLine
 10
896.5305561923864
 20
107.4259618424929
 30
0.0
 11
897.5153639453985
 21
107.5996100201598
 31
0.0
  0
LINE
  5
21C
330
2
100
AcDbEntity
  8
STITEK_M
100
AcDbLine
 10
895.3402165657903
 20
110.6915913532021
 30
0.0
 11
896.2062419695749
 21
111.1915913532021
 31
0.0
  0
LINE
  5
21D
330
2
100
AcDbEntity
  8
STITEK_M
100
AcDbLine
 10
896.0782391598197
 20
109.1108472093839
 30
0.0
 11
897.0179317806056
 21
109.4528673527096
 31
0.0
  0
LINE
  5
21E
330
2
100
AcDbEntity
  8
STITEK_M
100
AcDbLine
 10
896.081473839748
 20
102.2648417128887
 30
0.0
 11
897.0211664605338
 21
101.922821569563
 31
0.0
  0
LWPOLYLINE
  5
21F
330
2
100
AcDbEntity
  8
STITEK_M
100
AcDbPolyline
 90
        2
 70
     0
 43
0.15
 10
896.0333356597386
 20
104.0381167346765
 10
897.5170062354386
 20
103.7765055816973
  0
TEXT
  5
220
330
2
100
AcDbEntity
  8
STITEK_M
  6
Continuous
100
AcDbText
 10
894.6059477731822
 20
105.1570285409555
 30
0.0
 40
1.1
  1
30
 50
260.0000000000013
  7
ARIAL
 72
     1
 11
895.540829888263
 21
104.1243609522416
 31
0.0
100
AcDbText
 73
     3
  0
TEXT
  5
221
330
2
100
AcDbEntity
  8
STITEK_M
  6
Continuous
100
AcDbText
 10
892.1700916214799
 20
111.4156332558706
 30
0.0
 40
1.1
  1
25
 50
310.0000000000026
  7
ARIAL
 72
     1
 11
893.5620915294949
 21
111.4680085741495
 31
0.0
100
AcDbText
 73
     3
  0
LWPOLYLINE
  5
222
330
2
100
AcDbEntity
  8
STITEK_M
100
AcDbPolyline
 90
        2
 70
     0
 43
0.15
 10
893.944953621793
 20
111.7895931171255
 10
895.1049572964793
 20
112.7629517727192
  0
LINE
  5
223
330
2
100
AcDbEntity
  8
STITEK_M
100
AcDbLine
 10
896.6834242393391
 20
105.688129641809
 30
0.0
 11
897.6834242393392
 21
105.688129641809
 31
0.0
  0
LINE
  5
239
330
2
100
AcDbEntity
  8
SVORKY
  6
Continuous
100
AcDbLine
 10
886.6752337422425
 20
134.9238961281041
 30
0.0
 11
891.6752337422424
 21
134.9238961281041
 31
0.0
  0
LINE
  5
23A
330
2
100
AcDbEntity
  8
SVORKY
  6
Continuous
100
AcDbLine
 10
886.6752337422425
 20
130.1738961281041
 30
0.0
 11
891.6752337422424
 21
130.1738961281041
 31
0.0
  0
LINE
  5
23B
330
2
100
AcDbEntity
  8
SVORKY
  6
Continuous
100
AcDbLine
 10
886.6752337422425
 20
132.673896128104
 30
0.0
 11
891.6752337422424
 21
132.673896128104
 31
0.0
  0
TEXT
  5
23C
330
2
100
AcDbEntity
  8
SVORKY_POPIS
 62
     7
100
AcDbText
 10
889.4884111117571
 20
133.3964417962602
 30
0.0
 40
0.65
  1
~
 50
180.0
  7
COMIC
 72
     1
 11
889.2192636151401
 21
133.3964417962602
 31
0.0
100
AcDbText
  0
TEXT
  5
23D
330
2
100
AcDbEntity
  8
SVORKY_POPIS
 62
     7
100
AcDbText
 10
889.4490504892942
 20
133.805959134513
 30
0.0
 40
0.65
  1
=
 50
180.0
  7
COMIC
 72
     1
 11
889.2192636151401
 21
133.805959134513
 31
0.0
100
AcDbText
  0
LWPOLYLINE
  5
23E
330
2
100
AcDbEntity
  8
SVORKY
  6
Continuous
100
AcDbPolyline
 90
        4
 70
     1
 43
0.0
 10
886.6752337422425
 20
126.9238961281041
 10
891.6752337422424
 20
126.9238961281041
 10
891.6752337422424
 20
135.1738961281041
 10
886.6752337422425
 20
135.1738961281041
  0
LWPOLYLINE
  5
23F
330
2
100
AcDbEntity
  8
STITEK_M
 62
    84
100
AcDbPolyline
 90
        2
 70
     1
 43
0.25
 10
877.602465866488
 20
117.3904758260227
 42
1.0
 10
877.8524658664879
 20
117.3904758260227
 42
1.0
  0
LWPOLYLINE
  5
240
330
2
100
AcDbEntity
  8
STITEK_M
 62
    84
100
AcDbPolyline
 90
        2
 70
     1
 43
0.25
 10
874.7919195311988
 20
114.569748597025
 42
1.0
 10
875.0419195311987
 20
114.569748597025
 42
1.0
  0
HATCH
  5
241
330
2
100
AcDbEntity
  8
STITEK_M
 62
   140
100
AcDbHatch
 10
0.0
 20
0.0
 30
0.0
210
0.0
220
0.0
230
1.0
  2
SOLID
 70
     1
 71
     1
 91
        1
 92
        7
 72
     1
 73
     1
 93
        3
 10
885.0497254679439
 20
119.3299284871405
 42
0.0
 10
886.6752337422424
 20
117.7044202128419
 42
0.0
 10
888.3007420165411
 20
119.3299284871405
 42
0.051989935020729
 97
        1
330
242
 75
     0
 76
     1
 47
0.0105974382665488
 98
        1
 10
886.4373078137059
 20
119.0817814947443
  0
LWPOLYLINE
  5
242
102
{ACAD_REACTORS
330
241
102
}
330
2
100
AcDbEntity
  8
STITEK_M
 62
   140
100
AcDbPolyline
 90
        3
 70
     1
 43
0.0
 10
888.3007420165411
 20
119.3299284871405
 42
0.051989935020729
 10
885.0497254679439
 20
119.3299284871405
 10
886.6752337422424
 20
117.7044202128419
  0
LWPOLYLINE
  5
243
330
2
100
AcDbEntity
  8
STITEK_M
100
AcDbPolyline
 90
        2
 70
     0
 43
0.15
 10
886.6705049565389
 20
115.1739421077816
 10
886.6705049565389
 20
116.6915913532021
  0
LINE
  5
244
330
2
100
AcDbEntity
  8
STITEK_M
100
AcDbLine
 10
888.4084808389836
 20
115.5403655962893
 30
0.0
 11
888.5821290166504
 21
116.5251733493015
 31
0.0
  0
LWPOLYLINE
  5
245
330
2
100
AcDbEntity
  8
STITEK_M
 62
    84
100
AcDbPolyline
 90
        2
 70
     1
 43
0.25
 10
880.8169240042328
 20
119.2762993362365
 42
1.0
 10
881.0669240042328
 20
119.2762993362365
 42
1.0
  0
LINE
  5
246
330
2
100
AcDbEntity
  8
STITEK_M
100
AcDbLine
 10
884.9326727558549
 20
115.5387233062493
 30
0.0
 11
884.759024578188
 21
116.5235310592615
 31
0.0
  0
LINE
  5
247
330
2
100
AcDbEntity
  8
STITEK_M
100
AcDbLine
 10
881.6670432451457
 20
114.3483836796533
 30
0.0
 11
881.1670432451458
 21
115.2144090834378
 31
0.0
  0
LINE
  5
248
330
2
100
AcDbEntity
  8
STITEK_M
100
AcDbLine
 10
883.247787388964
 20
115.0864062736827
 30
0.0
 11
882.9057672456384
 21
116.0260988944686
 31
0.0
  0
LINE
  5
249
330
2
100
AcDbEntity
  8
STITEK_M
100
AcDbLine
 10
880.2384704353153
 20
113.3470799672233
 30
0.0
 11
879.5956828256286
 21
114.1131244103423
 31
0.0
  0
TEXT
  5
24A
330
2
100
AcDbEntity
  8
STITEK_M
  6
Continuous
100
AcDbText
 10
878.2694905498258
 20
115.5561120414531
 30
0.0
 40
0.89
  1
III
  7
ARIAL_T
 72
     4
 11
878.7876453929364
 21
116.001112041453
 31
0.0
100
AcDbText
  0
TEXT
  5
24B
330
2
100
AcDbEntity
  8
STITEK_M
  6
Continuous
100
AcDbText
 10
881.1798972455591
 20
117.2015680918756
 30
0.0
 40
0.89
  1
A
  7
ARIAL_T
 72
     4
 11
881.6288433574282
 21
117.6465680918756
 31
0.0
100
AcDbText
  0
TEXT
  5
24C
330
2
100
AcDbEntity
  8
STITEK_M
  6
Continuous
100
AcDbText
 10
885.8158664845062
 20
113.6739421077817
 30
0.0
 40
1.1
  1
20
  7
ARIAL
 72
     1
 11
886.6705049565389
 21
114.7739421077816
 31
0.0
100
AcDbText
 73
     3
  0
CIRCLE
  5
24D
330
2
100
AcDbEntity
  8
SVORKY
 62
     7
100
AcDbCircle
 10
887.9252337422425
 20
131.4238961281041
 30
0.0
 40
0.875
  0
LINE
  5
24E
330
2
100
AcDbEntity
  8
SVORKY
 62
     7
100
AcDbLine
 10
888.1268885833291
 20
130.5724501103601
 30
0.0
 11
887.2902430766565
 21
132.0259026558368
 31
0.0
  0
LINE
  5
24F
330
2
100
AcDbEntity
  8
SVORKY
 62
     7
100
AcDbLine
 10
888.5602244065443
 20
130.8218896077104
 30
0.0
 11
887.7235789005139
 21
132.2753421495175
 31
0.0
  0
LINE
  5
250
330
2
100
AcDbEntity
  8
SVORKY
  6
Continuous
100
AcDbLine
 10
886.6752337422425
 20
130.1738961281041
 30
0.0
 11
887.1752337422424
 21
130.1738961281041
 31
0.0
  0
TEXT
  5
251
330
2
100
AcDbEntity
  8
SVORKY_POPIS
 62
     7
100
AcDbText
 10
888.1072382432947
 20
134.4305812931141
 30
0.0
 40
0.65
  1
1
 50
180.0
  7
COMIC
 72
     1
 11
887.9044980538495
 21
134.4305812931141
 31
0.0
100
AcDbText
  0
CIRCLE
  5
252
330
2
100
AcDbEntity
  8
SVORKY
  6
Continuous
100
AcDbCircle
 10
887.9252337422425
 20
128.6738961281041
 30
0.0
 40
0.6499999999999986
  0
CIRCLE
  5
253
330
2
100
AcDbEntity
  8
SVORKY
  6
Continuous
100
AcDbCircle
 10
887.9252337422425
 20
128.6738961281041
 30
0.0
 40
0.375
  0
LINE
  5
254
330
2
100
AcDbEntity
  8
SVORKY
  6
Continuous
100
AcDbLine
 10
886.6752337422425
 20
129.6738961281041
 30
0.0
 11
887.1752337422424
 21
129.6738961281041
 31
0.0
  0
LINE
  5
255
330
2
100
AcDbEntity
  8
SVORKY
  6
Continuous
100
AcDbLine
 10
887.1752337422424
 20
130.1738961281041
 30
0.0
 11
887.1752337422424
 21
126.9238961281041
 31
0.0
  0
CIRCLE
  5
256
330
2
100
AcDbEntity
  8
SVORKY
 62
     7
100
AcDbCircle
 10
882.9252337422426
 20
131.4238961281041
 30
0.0
 40
0.875
  0
LINE
  5
257
330
2
100
AcDbEntity
  8
SVORKY
 62
     7
100
AcDbLine
 10
882.9771031979674
 20
132.2973573783198
 30
0.0
 11
882.4035179782862
 21
130.7214449437121
 31
0.0
  0
LINE
  5
258
330
2
100
AcDbEntity
  8
SVORKY
 62
     7
100
AcDbLine
 10
883.4469495061988
 20
132.1263473050455
 30
0.0
 11
882.8733642865175
 21
130.550434874163
 31
0.0
  0
LINE
  5
259
330
2
100
AcDbEntity
  8
SVORKY
 62
     7
100
AcDbLine
 10
884.5505755548494
 20
131.3994410408663
 30
0.0
 11
886.1704824127128
 21
130.9653883048595
 31
0.0
  0
LINE
  5
25A
330
2
100
AcDbEntity
  8
SVORKY
  6
Continuous
100
AcDbLine
 10
881.4252337422425
 20
130.9238961281041
 30
0.0
 11
881.6752337422425
 21
130.9238961281041
 31
0.0
  0
LINE
  5
25B
330
2
100
AcDbEntity
  8
SVORKY
  6
Continuous
100
AcDbLine
 10
881.6752337422425
 20
130.1738961281041
 30
0.0
 11
882.1752337422426
 21
130.1738961281041
 31
0.0
  0
TEXT
  5
25C
330
2
100
AcDbEntity
  8
SVORKY_POPIS
 62
     7
100
AcDbText
 10
882.6885417840264
 20
134.8941663597595
 30
0.0
 40
0.65
  1
485+
 50
270.0
  7
COMIC
 72
     1
 11
882.6885417840264
 21
133.8531988360788
 31
0.0
100
AcDbText
  0
CIRCLE
  5
25D
330
2
100
AcDbEntity
  8
SVORKY
  6
Continuous
100
AcDbCircle
 10
885.4252337422424
 20
128.6738961281041
 30
0.0
 40
0.6499999999999986
  0
CIRCLE
  5
25E
330
2
100
AcDbEntity
  8
SVORKY
  6
Continuous
100
AcDbCircle
 10
882.9252337422426
 20
128.6738961281041
 30
0.0
 40
0.6499999999999986
  0
CIRCLE
  5
25F
330
2
100
AcDbEntity
  8
SVORKY
  6
Continuous
100
AcDbCircle
 10
882.9252337422426
 20
128.6738961281041
 30
0.0
 40
0.375
  0
LINE
  5
260
330
2
100
AcDbEntity
  8
SVORKY
  6
Continuous
100
AcDbLine
 10
881.6752337422425
 20
126.9238961281041
 30
0.0
 11
881.4252337422425
 21
126.9238961281041
 31
0.0
  0
LINE
  5
261
330
2
100
AcDbEntity
  8
SVORKY
  6
Continuous
100
AcDbLine
 10
881.6752337422425
 20
129.6738961281041
 30
0.0
 11
882.1752337422426
 21
129.6738961281041
 31
0.0
  0
CIRCLE
  5
262
330
2
100
AcDbEntity
  8
SVORKY
  6
Continuous
100
AcDbCircle
 10
885.4252337422424
 20
128.6738961281041
 30
0.0
 40
0.375
  0
LINE
  5
263
330
2
100
AcDbEntity
  8
SVORKY
  6
Continuous
100
AcDbLine
 10
882.1752337422426
 20
130.1738961281041
 30
0.0
 11
882.1752337422426
 21
126.9238961281041
 31
0.0
  0
LINE
  5
264
330
2
100
AcDbEntity
  8
SVORKY
  6
Continuous
100
AcDbLine
 10
881.4252337422425
 20
126.9238961281041
 30
0.0
 11
881.4252337422425
 21
130.9238961281041
 31
0.0
  0
LINE
  5
265
330
2
100
AcDbEntity
  8
SVORKY
  6
Continuous
100
AcDbLine
 10
886.1752337422425
 20
126.9238961281041
 30
0.0
 11
886.1752337422425
 21
130.1738961281041
 31
0.0
  0
CIRCLE
  5
266
330
2
100
AcDbEntity
  8
SVORKY
 62
     7
100
AcDbCircle
 10
885.4252337422424
 20
131.4238961281041
 30
0.0
 40
0.875
  0
LINE
  5
267
330
2
100
AcDbEntity
  8
SVORKY
 62
     7
100
AcDbLine
 10
884.6799850791944
 20
131.8824039519979
 30
0.0
 11
886.2998919333467
 21
131.4483512156665
 31
0.0
  0
LWPOLYLINE
  5
268
330
2
100
AcDbEntity
  8
SVORKY
  6
Continuous
100
AcDbPolyline
 90
        4
 70
     1
 43
0.0
 10
881.6752337422425
 20
126.9238961281041
 10
886.6752337422425
 20
126.9238961281041
 10
886.6752337422425
 20
135.1738961281041
 10
881.6752337422425
 20
135.1738961281041
  0
LINE
  5
269
330
2
100
AcDbEntity
  8
SVORKY
  6
Continuous
100
AcDbLine
 10
881.6752337422425
 20
130.1738961281041
 30
0.0
 11
886.6752337422425
 21
130.1738961281041
 31
0.0
  0
LINE
  5
26A
330
2
100
AcDbEntity
  8
SVORKY
  6
Continuous
100
AcDbLine
 10
886.1752337422425
 20
129.6738961281041
 30
0.0
 11
886.6752337422425
 21
129.6738961281041
 31
0.0
  0
LINE
  5
26B
330
2
100
AcDbEntity
  8
SVORKY
  6
Continuous
100
AcDbLine
 10
881.6752337422425
 20
134.9238961281041
 30
0.0
 11
886.6752337422425
 21
134.9238961281041
 31
0.0
  0
LINE
  5
26C
330
2
100
AcDbEntity
  8
SVORKY
  6
Continuous
100
AcDbLine
 10
881.6752337422425
 20
132.673896128104
 30
0.0
 11
886.6752337422425
 21
132.673896128104
 31
0.0
  0
TEXT
  5
26D
330
2
100
AcDbEntity
  8
SVORKY_POPIS
 62
     7
100
AcDbText
 10
885.1885417840263
 20
134.8653605410856
 30
0.0
 40
0.65
  1
485-
 50
270.0
  7
COMIC
 72
     1
 11
885.1885417840263
 21
133.8531988360788
 31
0.0
100
AcDbText
  0
HATCH
  5
26E
330
2
100
AcDbEntity
  8
STITEK_M
  6
Continuous
100
AcDbHatch
 10
0.0
 20
0.0
 30
0.0
210
0.0
220
0.0
230
1.0
  2
SOLID
 70
     1
 71
     1
 91
        2
 92
       16
 93
        1
 72
     2
 10
894.5528089676608
 20
115.9891210240317
 40
0.5680663734170111
 50
0.0
 51
360.0
 73
     1
 97
        1
330
26F
 92
        1
 93
        1
 72
     2
 10
894.5528089676608
 20
115.9891210240317
 40
0.5977754163675009
 50
0.0
 51
360.0
 73
     1
 97
        1
330
270
 75
     0
 76
     1
 98
        1
 10
864.5226044491478
 20
126.6865119998682
  0
CIRCLE
  5
26F
102
{ACAD_REACTORS
330
26E
102
}
330
2
100
AcDbEntity
  8
STITEK_M
  6
Continuous
100
AcDbCircle
 10
894.5528089676608
 20
115.9891210240317
 30
0.0
 40
0.5680663734170111
  0
CIRCLE
  5
270
102
{ACAD_REACTORS
330
26E
102
}
330
2
100
AcDbEntity
  8
STITEK_M
  6
Continuous
100
AcDbCircle
 10
894.5528089676608
 20
115.9891210240317
 30
0.0
 40
0.5977754163675009
  0
HATCH
  5
271
330
2
100
AcDbEntity
  8
STITEK_M
  6
Continuous
100
AcDbHatch
 10
0.0
 20
0.0
 30
0.0
210
0.0
220
0.0
230
1.0
  2
SOLID
 70
     1
 71
     1
 91
        1
 92
        1
 93
       18
 72
     1
 10
894.5847138051608
 20
116.0441624647812
 11
894.7395328616632
 21
116.1330592562287
 72
     1
 10
894.7395328616632
 20
116.1330592562287
 11
894.7179611684958
 21
116.1706276445692
 72
     1
 10
894.7179611684958
 20
116.1706276445692
 11
894.8842747054159
 21
116.1803777629092
 72
     1
 10
894.8842747054159
 20
116.1803777629092
 11
894.7924270592208
 21
116.0409408610992
 72
     1
 10
894.7924270592208
 20
116.0409408610992
 11
894.7707598979874
 21
116.0786755127621
 72
     1
 10
894.7707598979874
 20
116.0786755127621
 11
894.5847138051608
 21
115.9707330743956
 72
     1
 10
894.5847138051608
 20
115.9707330743956
 11
894.5847138051608
 21
115.8929279389692
 72
     1
 10
894.5847138051608
 20
115.8929279389692
 11
894.5206106056557
 21
115.8929279389692
 72
     1
 10
894.5206106056557
 20
115.8929279389692
 11
894.5206106056557
 21
115.9335409164925
 72
     1
 10
894.5206106056557
 20
115.9335409164925
 11
894.4878507185107
 21
115.9145338949242
 72
     1
 10
894.4878507185107
 20
115.9145338949242
 11
894.4556395945708
 21
115.9700483121743
 72
     1
 10
894.4556395945708
 20
115.9700483121743
 11
894.5206106056557
 21
116.0073545363112
 72
     1
 10
894.5206106056557
 20
116.0073545363112
 11
894.5206106056557
 21
116.3948676044542
 72
     1
 10
894.5206106056557
 20
116.3948676044542
 11
894.4781006001708
 21
116.3948676044542
 72
     1
 10
894.4781006001708
 20
116.3948676044542
 11
894.5528089676608
 21
116.5446416736142
 72
     1
 10
894.5528089676608
 20
116.5446416736142
 11
894.6278746693307
 21
116.3948676044542
 72
     1
 10
894.6278746693307
 20
116.3948676044542
 11
894.5847138051608
 21
116.3948676044542
 72
     1
 10
894.5847138051608
 20
116.3948676044542
 11
894.5847138051608
 21
116.0441624647812
 97
       18
330
272
330
273
330
274
330
275
330
276
330
277
330
278
330
279
330
27A
330
27B
330
27C
330
27D
330
27E
330
27F
330
280
330
281
330
282
330
283
 75
     0
 76
     1
 98
        1
 10
864.5226044491478
 20
126.6865119998682
  0
LINE
  5
272
102
{ACAD_REACTORS
330
271
102
}
330
2
100
AcDbEntity
  8
STITEK_M
  6
Continuous
100
AcDbLine
 10
894.5847138051608
 20
116.0441624647812
 30
0.0
 11
894.7395328616632
 21
116.1330592562287
 31
0.0
  0
LINE
  5
273
102
{ACAD_REACTORS
330
271
102
}
330
2
100
AcDbEntity
  8
STITEK_M
  6
Continuous
100
AcDbLine
 10
894.7395328616632
 20
116.1330592562287
 30
0.0
 11
894.7179611684958
 21
116.1706276445692
 31
0.0
  0
LINE
  5
274
102
{ACAD_REACTORS
330
271
102
}
330
2
100
AcDbEntity
  8
STITEK_M
  6
Continuous
100
AcDbLine
 10
894.7179611684958
 20
116.1706276445692
 30
0.0
 11
894.8842747054159
 21
116.1803777629092
 31
0.0
  0
LINE
  5
275
102
{ACAD_REACTORS
330
271
102
}
330
2
100
AcDbEntity
  8
STITEK_M
  6
Continuous
100
AcDbLine
 10
894.8842747054159
 20
116.1803777629092
 30
0.0
 11
894.7924270592208
 21
116.0409408610992
 31
0.0
  0
LINE
  5
276
102
{ACAD_REACTORS
330
271
102
}
330
2
100
AcDbEntity
  8
STITEK_M
  6
Continuous
100
AcDbLine
 10
894.7924270592208
 20
116.0409408610992
 30
0.0
 11
894.7707598979874
 21
116.0786755127621
 31
0.0
  0
LINE
  5
277
102
{ACAD_REACTORS
330
271
102
}
330
2
100
AcDbEntity
  8
STITEK_M
  6
Continuous
100
AcDbLine
 10
894.5847138051608
 20
115.9707330743956
 30
0.0
 11
894.7707598979874
 21
116.0786755127621
 31
0.0
  0
LINE
  5
278
102
{ACAD_REACTORS
330
271
102
}
330
2
100
AcDbEntity
  8
STITEK_M
  6
Continuous
100
AcDbLine
 10
894.5847138051608
 20
115.8929279389692
 30
0.0
 11
894.5847138051608
 21
115.9707330743956
 31
0.0
  0
LINE
  5
279
102
{ACAD_REACTORS
330
271
102
}
330
2
100
AcDbEntity
  8
STITEK_M
  6
Continuous
100
AcDbLine
 10
894.5206106056557
 20
115.8929279389692
 30
0.0
 11
894.5847138051608
 21
115.8929279389692
 31
0.0
  0
LINE
  5
27A
102
{ACAD_REACTORS
330
271
102
}
330
2
100
AcDbEntity
  8
STITEK_M
  6
Continuous
100
AcDbLine
 10
894.5206106056557
 20
115.9335409164925
 30
0.0
 11
894.5206106056557
 21
115.8929279389692
 31
0.0
  0
LINE
  5
27B
102
{ACAD_REACTORS
330
271
102
}
330
2
100
AcDbEntity
  8
STITEK_M
  6
Continuous
100
AcDbLine
 10
894.4878507185107
 20
115.9145338949242
 30
0.0
 11
894.5206106056557
 21
115.9335409164925
 31
0.0
  0
LINE
  5
27C
102
{ACAD_REACTORS
330
271
102
}
330
2
100
AcDbEntity
  8
STITEK_M
  6
Continuous
100
AcDbLine
 10
894.4556395945708
 20
115.9700483121743
 30
0.0
 11
894.4878507185107
 21
115.9145338949242
 31
0.0
  0
LINE
  5
27D
102
{ACAD_REACTORS
330
271
102
}
330
2
100
AcDbEntity
  8
STITEK_M
  6
Continuous
100
AcDbLine
 10
894.4556395945708
 20
115.9700483121743
 30
0.0
 11
894.5206106056557
 21
116.0073545363112
 31
0.0
  0
LINE
  5
27E
102
{ACAD_REACTORS
330
271
102
}
330
2
100
AcDbEntity
  8
STITEK_M
  6
Continuous
100
AcDbLine
 10
894.5206106056557
 20
116.3948676044542
 30
0.0
 11
894.5206106056557
 21
116.0073545363112
 31
0.0
  0
LINE
  5
27F
102
{ACAD_REACTORS
330
271
102
}
330
2
100
AcDbEntity
  8
STITEK_M
  6
Continuous
100
AcDbLine
 10
894.4781006001708
 20
116.3948676044542
 30
0.0
 11
894.5206106056557
 21
116.3948676044542
 31
0.0
  0
LINE
  5
280
102
{ACAD_REACTORS
330
271
102
}
330
2
100
AcDbEntity
  8
STITEK_M
  6
Continuous
100
AcDbLine
 10
894.5528089676608
 20
116.5446416736142
 30
0.0
 11
894.4781006001708
 21
116.3948676044542
 31
0.0
  0
LINE
  5
281
102
{ACAD_REACTORS
330
271
102
}
330
2
100
AcDbEntity
  8
STITEK_M
  6
Continuous
100
AcDbLine
 10
894.6278746693307
 20
116.3948676044542
 30
0.0
 11
894.5528089676608
 21
116.5446416736142
 31
0.0
  0
LINE
  5
282
102
{ACAD_REACTORS
330
271
102
}
330
2
100
AcDbEntity
  8
STITEK_M
  6
Continuous
100
AcDbLine
 10
894.5847138051608
 20
116.3948676044542
 30
0.0
 11
894.6278746693307
 21
116.3948676044542
 31
0.0
  0
LINE
  5
283
102
{ACAD_REACTORS
330
271
102
}
330
2
100
AcDbEntity
  8
STITEK_M
  6
Continuous
100
AcDbLine
 10
894.5847138051608
 20
116.0441624647812
 30
0.0
 11
894.5847138051608
 21
116.3948676044542
 31
0.0
  0
HATCH
  5
284
330
2
100
AcDbEntity
  8
STITEK_M
  6
Continuous
100
AcDbHatch
 10
0.0
 20
0.0
 30
0.0
210
0.0
220
0.0
230
1.0
  2
SOLID
 70
     1
 71
     1
 91
       11
 92
        1
 93
        4
 72
     1
 10
894.8400823118072
 20
116.4518655814112
 11
894.7946174179985
 21
116.3731180753737
 72
     1
 10
894.7946174179985
 20
116.3731180753737
 11
894.7643221972585
 21
116.3906090292232
 72
     1
 10
894.7643221972585
 20
116.3906090292232
 11
894.8097870910672
 21
116.4693565352606
 72
     1
 10
894.8097870910672
 20
116.4693565352606
 11
894.8400823118072
 21
116.4518655814112
 97
        1
330
285
 92
        1
 93
        4
 72
     1
 10
895.0329672602116
 20
116.2462328941121
 11
894.9542197541742
 21
116.2007680003034
 72
     1
 10
894.9542197541742
 20
116.2007680003034
 11
894.9367288003244
 21
116.2310632210435
 72
     1
 10
894.9367288003244
 20
116.2310632210435
 11
895.015476306362
 21
116.2765281148522
 72
     1
 10
895.015476306362
 20
116.2765281148522
 11
895.0329672602116
 21
116.2462328941121
 97
        1
330
286
 92
        1
 93
        4
 72
     1
 10
895.0971941818878
 20
115.9717072888606
 11
895.00626439427
 21
115.9717072888606
 72
     1
 10
895.00626439427
 20
115.9717072888606
 11
895.00626439427
 21
116.0066891965595
 72
     1
 10
895.00626439427
 20
116.0066891965595
 11
895.0971941818878
 21
116.0066891965595
 72
     1
 10
895.0971941818878
 20
116.0066891965595
 11
895.0971941818878
 21
115.9717072888606
 97
        1
330
287
 92
        1
 93
        4
 72
     1
 10
895.0155535250402
 20
115.7018476798854
 11
894.9368060190028
 21
115.7473125736941
 72
     1
 10
894.9368060190028
 20
115.7473125736941
 11
894.9542969728524
 21
115.7776077944342
 72
     1
 10
894.9542969728524
 20
115.7776077944342
 11
895.03304447889
 21
115.7321429006255
 72
     1
 10
895.03304447889
 20
115.7321429006255
 11
895.0155535250402
 21
115.7018476798854
 97
        1
330
288
 92
        1
 93
        4
 72
     1
 10
894.8099208377414
 20
115.5089627314811
 11
894.7644559439325
 21
115.5877102375186
 72
     1
 10
894.7644559439325
 20
115.5877102375186
 11
894.7947511646727
 21
115.6052011913681
 72
     1
 10
894.7947511646727
 20
115.6052011913681
 11
894.8402160584814
 21
115.5264536853306
 72
     1
 10
894.8402160584814
 20
115.5264536853306
 11
894.8099208377414
 21
115.5089627314811
 97
        1
330
289
 92
        1
 93
        4
 72
     1
 10
894.5353952324898
 20
115.444735809805
 11
894.5353952324898
 21
115.5356655974224
 72
     1
 10
894.5353952324898
 20
115.5356655974224
 11
894.5703771401888
 21
115.5356655974224
 72
     1
 10
894.5703771401888
 20
115.5356655974224
 11
894.5703771401888
 21
115.444735809805
 72
     1
 10
894.5703771401888
 20
115.444735809805
 11
894.5353952324898
 21
115.444735809805
 97
        1
330
28A
 92
        1
 93
        4
 72
     1
 10
894.2655356235146
 20
115.5263764666523
 11
894.3110005173233
 21
115.6051239726898
 72
     1
 10
894.3110005173233
 20
115.6051239726898
 11
894.3412957380633
 21
115.5876330188403
 72
     1
 10
894.3412957380633
 20
115.5876330188403
 11
894.2958308442547
 21
115.5088855128028
 72
     1
 10
894.2958308442547
 20
115.5088855128028
 11
894.2655356235146
 21
115.5263764666523
 97
        1
330
28B
 92
        1
 93
        4
 72
     1
 10
894.0726506751103
 20
115.7320091539513
 11
894.1513981811478
 21
115.7774740477601
 72
     1
 10
894.1513981811478
 20
115.7774740477601
 11
894.1688891349972
 21
115.74717882702
 72
     1
 10
894.1688891349972
 20
115.74717882702
 11
894.0901416289598
 21
115.7017139332112
 72
     1
 10
894.0901416289598
 20
115.7017139332112
 11
894.0726506751103
 21
115.7320091539513
 97
        1
330
28C
 92
        1
 93
        4
 72
     1
 10
894.0084237534341
 20
116.0065347592029
 11
894.0993535410516
 21
116.0065347592029
 72
     1
 10
894.0993535410516
 20
116.0065347592029
 11
894.0993535410516
 21
115.9715528515039
 72
     1
 10
894.0993535410516
 20
115.9715528515039
 11
894.0084237534341
 21
115.9715528515039
 72
     1
 10
894.0084237534341
 20
115.9715528515039
 11
894.0084237534341
 21
116.0065347592029
 97
        1
330
28D
 92
        1
 93
        4
 72
     1
 10
894.0900644102814
 20
116.2763943681781
 11
894.1688119163188
 21
116.2309294743694
 72
     1
 10
894.1688119163188
 20
116.2309294743694
 11
894.1513209624694
 21
116.2006342536292
 72
     1
 10
894.1513209624694
 20
116.2006342536292
 11
894.072573456432
 21
116.246099147438
 72
     1
 10
894.072573456432
 20
116.246099147438
 11
894.0900644102814
 21
116.2763943681781
 97
        1
330
28E
 92
        1
 93
        4
 72
     1
 10
894.2956970975806
 20
116.4692793165823
 11
894.3411619913893
 21
116.3905318105449
 72
     1
 10
894.3411619913893
 20
116.3905318105449
 11
894.3108667706493
 21
116.3730408566954
 72
     1
 10
894.3108667706493
 20
116.3730408566954
 11
894.2654018768404
 21
116.4517883627329
 72
     1
 10
894.2654018768404
 20
116.4517883627329
 11
894.2956970975806
 21
116.4692793165823
 97
        1
330
28F
 75
     0
 76
     1
 98
        1
 10
828.0948200128182
 20
14.98759875713997
  0
LWPOLYLINE
  5
285
102
{ACAD_REACTORS
330
284
102
}
330
2
100
AcDbEntity
  8
STITEK_M
  6
Continuous
100
AcDbPolyline
 90
        4
 70
     1
 43
0.0
 10
894.8400823118072
 20
116.4518655814112
 10
894.7946174179985
 20
116.3731180753737
 10
894.7643221972585
 20
116.3906090292232
 10
894.8097870910672
 20
116.4693565352606
  0
LWPOLYLINE
  5
286
102
{ACAD_REACTORS
330
284
102
}
330
2
100
AcDbEntity
  8
STITEK_M
  6
Continuous
100
AcDbPolyline
 90
        4
 70
     1
 43
0.0
 10
895.0329672602116
 20
116.2462328941121
 10
894.9542197541742
 20
116.2007680003034
 10
894.9367288003244
 20
116.2310632210435
 10
895.015476306362
 20
116.2765281148522
  0
LWPOLYLINE
  5
287
102
{ACAD_REACTORS
330
284
102
}
330
2
100
AcDbEntity
  8
STITEK_M
  6
Continuous
100
AcDbPolyline
 90
        4
 70
     1
 43
0.0
 10
895.0971941818878
 20
115.9717072888606
 10
895.00626439427
 20
115.9717072888606
 10
895.00626439427
 20
116.0066891965595
 10
895.0971941818878
 20
116.0066891965595
  0
LWPOLYLINE
  5
288
102
{ACAD_REACTORS
330
284
102
}
330
2
100
AcDbEntity
  8
STITEK_M
  6
Continuous
100
AcDbPolyline
 90
        4
 70
     1
 43
0.0
 10
895.0155535250402
 20
115.7018476798854
 10
894.9368060190028
 20
115.7473125736941
 10
894.9542969728524
 20
115.7776077944342
 10
895.03304447889
 20
115.7321429006255
  0
LWPOLYLINE
  5
289
102
{ACAD_REACTORS
330
284
102
}
330
2
100
AcDbEntity
  8
STITEK_M
  6
Continuous
100
AcDbPolyline
 90
        4
 70
     1
 43
0.0
 10
894.8099208377414
 20
115.5089627314811
 10
894.7644559439325
 20
115.5877102375186
 10
894.7947511646727
 20
115.6052011913681
 10
894.8402160584814
 20
115.5264536853306
  0
LWPOLYLINE
  5
28A
102
{ACAD_REACTORS
330
284
102
}
330
2
100
AcDbEntity
  8
STITEK_M
  6
Continuous
100
AcDbPolyline
 90
        4
 70
     1
 43
0.0
 10
894.5353952324898
 20
115.444735809805
 10
894.5353952324898
 20
115.5356655974224
 10
894.5703771401888
 20
115.5356655974224
 10
894.5703771401888
 20
115.444735809805
  0
LWPOLYLINE
  5
28B
102
{ACAD_REACTORS
330
284
102
}
330
2
100
AcDbEntity
  8
STITEK_M
  6
Continuous
100
AcDbPolyline
 90
        4
 70
     1
 43
0.0
 10
894.2655356235146
 20
115.5263764666523
 10
894.3110005173233
 20
115.6051239726898
 10
894.3412957380633
 20
115.5876330188403
 10
894.2958308442547
 20
115.5088855128028
  0
LWPOLYLINE
  5
28C
102
{ACAD_REACTORS
330
284
102
}
330
2
100
AcDbEntity
  8
STITEK_M
  6
Continuous
100
AcDbPolyline
 90
        4
 70
     1
 43
0.0
 10
894.0726506751103
 20
115.7320091539513
 10
894.1513981811478
 20
115.7774740477601
 10
894.1688891349972
 20
115.74717882702
 10
894.0901416289598
 20
115.7017139332112
  0
LWPOLYLINE
  5
28D
102
{ACAD_REACTORS
330
284
102
}
330
2
100
AcDbEntity
  8
STITEK_M
  6
Continuous
100
AcDbPolyline
 90
        4
 70
     1
 43
0.0
 10
894.0084237534341
 20
116.0065347592029
 10
894.0993535410516
 20
116.0065347592029
 10
894.0993535410516
 20
115.9715528515039
 10
894.0084237534341
 20
115.9715528515039
  0
LWPOLYLINE
  5
28E
102
{ACAD_REACTORS
330
284
102
}
330
2
100
AcDbEntity
  8
STITEK_M
  6
Continuous
100
AcDbPolyline
 90
        4
 70
     1
 43
0.0
 10
894.0900644102814
 20
116.2763943681781
 10
894.1688119163188
 20
116.2309294743694
 10
894.1513209624694
 20
116.2006342536292
 10
894.072573456432
 20
116.246099147438
  0
LWPOLYLINE
  5
28F
102
{ACAD_REACTORS
330
284
102
}
330
2
100
AcDbEntity
  8
STITEK_M
  6
Continuous
100
AcDbPolyline
 90
        4
 70
     1
 43
0.0
 10
894.2956970975806
 20
116.4692793165823
 10
894.3411619913893
 20
116.3905318105449
 10
894.3108667706493
 20
116.3730408566954
 10
894.2654018768404
 20
116.4517883627329
  0
HATCH
  5
290
330
2
100
AcDbEntity
  8
STITEK_M
  6
Continuous
100
AcDbHatch
 10
0.0
 20
0.0
 30
0.0
210
0.0
220
0.0
230
1.0
  2
SOLID
 70
     1
 71
     1
 91
        1
 92
        1
 93
        2
 72
     4
 94
        3
 73
     0
 74
     0
 95
       18
 96
       14
 40
0.0
 40
0.0
 40
0.0
 40
0.0
 40
0.1674329358686493
 40
0.3602597395672143
 40
0.4732693456341144
 40
0.5221167387074184
 40
0.5716271795121016
 40
0.622799072006226
 40
0.6700562419597169
 40
0.7220230632172954
 40
0.8236029510727204
 40
1.006170851385333
 40
1.185653336404164
 40
1.185653336404164
 40
1.185653336404164
 40
1.185653336404164
 10
891.4890025727066
 20
117.8275837909575
 10
891.5036383424107
 20
117.8038243595906
 10
891.5610317644334
 20
117.7754433358725
 10
891.6095681190578
 20
117.7117864233785
 10
891.6647653383986
 20
117.6860449610079
 10
891.6885890903023
 20
117.6601650081247
 10
891.7009040965128
 20
117.6364396425904
 10
891.7320928407699
 20
117.6365068849996
 10
891.7443650805269
 20
117.6604374217478
 10
891.7686271820011
 20
117.6832588167965
 10
891.8126454042637
 20
117.718276774226
 10
891.8663746474869
 20
117.7733480754687
 10
891.9193789434688
 20
117.8065171229603
 10
891.9363029047289
 20
117.8311831284121
 72
     3
 10
891.71252614798
 20
117.8731844254198
 11
0.3056495840788181
 21
0.0025323905627991
 40
0.2102362767868888
 50
11.10502944404863
 51
168.9441208462913
 73
     0
 97
        2
330
291
330
292
 75
     0
 76
     1
 98
        1
 10
864.5226044491478
 20
126.6865119998682
  0
SPLINE
  5
291
102
{ACAD_REACTORS
330
290
102
}
330
2
100
AcDbEntity
  8
STITEK_M
  6
Continuous
100
AcDbSpline
210
0.0
220
0.0
230
1.0
 70
     8
 71
     3
 72
    18
 73
    14
 74
    12
 42
0.0000000001
 43
0.0000000001
 44
0.0000000001
 12
0.5244763688181854
 22
-0.8514250046547205
 32
0.0
 13
0.5657586451945653
 23
0.8245708916688789
 33
0.0
 40
0.0
 40
0.0
 40
0.0
 40
0.0
 40
0.0837164679342815
 40
0.180129869783564
 40
0.2366346728170141
 40
0.2610583693536661
 40
0.2858135897559706
 40
0.3113995360030328
 40
0.3350281209798522
 40
0.3610115316086023
 40
0.4118014755363581
 40
0.5030854256926224
 40
0.5928266682020377
 40
0.5928266682020377
 40
0.5928266682020377
 40
0.5928266682020377
 10
891.4890025727066
 20
117.8275837909575
 30
0.0
 10
891.5036383424107
 20
117.8038243595906
 30
0.0
 10
891.5610317644334
 20
117.7754433358725
 30
0.0
 10
891.6095681190579
 20
117.7117864233785
 30
0.0
 10
891.6647653383986
 20
117.6860449610079
 30
0.0
 10
891.6885890903024
 20
117.6601650081247
 30
0.0
 10
891.7009040965126
 20
117.6364396425904
 30
0.0
 10
891.7320928407695
 20
117.6365068849997
 30
0.0
 10
891.7443650805273
 20
117.6604374217477
 30
0.0
 10
891.7686271820011
 20
117.6832588167965
 30
0.0
 10
891.8126454042639
 20
117.7182767742259
 30
0.0
 10
891.8663746474869
 20
117.7733480754688
 30
0.0
 10
891.9193789434688
 20
117.8065171229603
 30
0.0
 10
891.9363029047289
 20
117.8311831284121
 30
0.0
 11
891.4890025727066
 21
117.8275837909575
 31
0.0
 11
891.5525697580099
 21
117.7731075580113
 31
0.0
 11
891.6242056043973
 21
117.7085796604125
 31
0.0
 11
891.6713646315463
 21
117.6774538042121
 31
0.0
 11
891.6877779912228
 21
117.6593673845376
 31
0.0
 11
891.7038949062655
 21
117.6405773343335
 31
0.0
 11
891.7294803991415
 21
117.6407296486521
 31
0.0
 11
891.744863620921
 21
117.6586647125128
 31
0.0
 11
891.7628109789722
 21
117.6774538042121
 31
0.0
 11
891.8014916698687
 21
117.7103691890034
 31
0.0
 11
891.8695412213502
 21
117.771213400719
 31
0.0
 11
891.9363029047289
 21
117.8311831284121
 31
0.0
  0
ELLIPSE
  5
292
102
{ACAD_REACTORS
330
290
102
}
330
2
100
AcDbEntity
  8
STITEK_M
  6
Continuous
100
AcDbEllipse
 10
891.71252614798
 20
117.8731844254198
 30
0.0
 11
0.305649584078818
 21
0.0025323905627991
 31
0.0
210
0.0
220
0.0
230
0.9999999999999998
 40
0.2102362767868888
 41
3.890412974450118
 42
5.53209653404702
  0
HATCH
  5
293
330
2
100
AcDbEntity
  8
STITEK_M
  6
Continuous
100
AcDbHatch
 10
0.0
 20
0.0
 30
0.0
210
0.0
220
0.0
230
1.0
  2
SOLID
 70
     1
 71
     1
 91
        1
 92
        1
 93
        3
 72
     4
 94
        3
 73
     0
 74
     0
 95
       13
 96
        9
 40
0.0
 40
0.0
 40
0.0
 40
0.0
 40
0.0491298915260475
 40
0.1481457666795264
 40
0.3975436853950191
 40
0.6283709567522456
 40
0.7254752788133729
 40
0.8505611820230431
 40
0.8505611820230431
 40
0.8505611820230431
 40
0.8505611820230431
 10
892.0064278626032
 20
117.2022036066754
 10
892.0141687132336
 20
117.2048733891056
 10
892.0369074551551
 20
117.2273752812648
 10
891.9650312011103
 20
117.2821354576173
 10
891.8844975678862
 20
117.3046087783028
 10
891.7860879806847
 20
117.3278554180336
 10
891.7254630716511
 20
117.377738889379
 10
891.7188552120874
 20
117.4175066347937
 10
891.7188552120874
 20
117.4383542853286
 72
     4
 94
        3
 73
     0
 74
     0
 95
       13
 96
        9
 40
0.0
 40
0.0
 40
0.0
 40
0.0
 40
0.1250859032096703
 40
0.2221902252707977
 40
0.4530174966280242
 40
0.7024154153435168
 40
0.8014312904969957
 40
0.8505611820230431
 40
0.8505611820230431
 40
0.8505611820230431
 40
0.8505611820230431
 10
891.7188552120874
 20
117.4383542853286
 10
891.7188552120874
 20
117.4175066347937
 10
891.7122473525237
 20
117.377738889379
 10
891.6516224434902
 20
117.3278554180336
 10
891.5532128562889
 20
117.3046087783028
 10
891.4726792230647
 20
117.2821354576173
 10
891.4008029690196
 20
117.2273752812648
 10
891.4235417109415
 20
117.2048733891056
 10
891.4312825615716
 20
117.2022036066754
 72
     3
 10
891.7127167452203
 20
117.2288257034371
 11
-0.3148447152881282
 21
0.0033129860855955
 40
0.208658006213403
 50
6.006658628173886
 51
175.4237179497074
 73
     1
 97
        3
330
294
330
295
330
296
 75
     0
 76
     1
 98
        1
 10
864.5226044491478
 20
126.6865119998682
  0
SPLINE
  5
294
102
{ACAD_REACTORS
330
293
102
}
330
2
100
AcDbEntity
  8
STITEK_M
  6
Continuous
100
AcDbSpline
210
0.0
220
0.0
230
1.0
 70
     8
 71
     3
 72
    13
 73
     9
 74
     7
 42
0.0000000001
 43
0.0000000001
 44
0.0000000001
 12
0.9453532735152696
 22
0.3260478312364056
 32
0.0
 13
0.0
 23
1.0
 33
0.0
 40
0.0
 40
0.0
 40
0.0
 40
0.0
 40
0.024564945763064
 40
0.0740728833398383
 40
0.1987718426974793
 40
0.3141854783761995
 40
0.3627376394067214
 40
0.4252805910115701
 40
0.4252805910115701
 40
0.4252805910115701
 40
0.4252805910115701
 10
892.0064278626032
 20
117.2022036066754
 30
0.0
 10
892.0141687132336
 20
117.2048733891056
 30
0.0
 10
892.0369074551551
 20
117.2273752812648
 30
0.0
 10
891.9650312011103
 20
117.2821354576172
 30
0.0
 10
891.884497567886
 20
117.3046087783029
 30
0.0
 10
891.7860879806848
 20
117.3278554180335
 30
0.0
 10
891.7254630716509
 20
117.3777388893789
 30
0.0
 10
891.7188552120874
 20
117.4175066347937
 30
0.0
 10
891.7188552120874
 20
117.4383542853286
 30
0.0
 11
892.0064278626032
 21
117.2022036066754
 31
0.0
 11
892.0238039054
 21
117.2195676412602
 31
0.0
 11
891.9933957307648
 21
117.2586365393565
 31
0.0
 11
891.8778456246629
 21
117.3055194087731
 31
0.0
 11
891.7692458558869
 21
117.3445885464956
 31
0.0
 11
891.7336248285165
 21
117.3775802840947
 31
0.0
 11
891.7188552120874
 21
117.4383542853286
 31
0.0
  0
SPLINE
  5
295
102
{ACAD_REACTORS
330
293
102
}
330
2
100
AcDbEntity
  8
STITEK_M
  6
Continuous
100
AcDbSpline
210
0.0
220
0.0
230
1.0
 70
     8
 71
     3
 72
    13
 73
     9
 74
     7
 42
0.0000000001
 43
0.0000000001
 44
0.0000000001
 12
-0.9453532735152696
 22
0.3260478312364056
 32
0.0
 13
0.0
 23
1.0
 33
0.0
 40
0.0
 40
0.0
 40
0.0
 40
0.0
 40
0.0245649457629836
 40
0.0740728833396881
 40
0.1987718426975398
 40
0.314185478376046
 40
0.3627376394066514
 40
0.4252805910114731
 40
0.4252805910114731
 40
0.4252805910114731
 40
0.4252805910114731
 10
891.4312825615716
 20
117.2022036066754
 30
0.0
 10
891.4235417109413
 20
117.2048733891055
 30
0.0
 10
891.4008029690196
 20
117.2273752812648
 30
0.0
 10
891.4726792230649
 20
117.2821354576173
 30
0.0
 10
891.5532128562889
 20
117.3046087783027
 30
0.0
 10
891.6516224434905
 20
117.3278554180336
 30
0.0
 10
891.7122473525235
 20
117.3777388893789
 30
0.0
 10
891.7188552120874
 20
117.4175066347937
 30
0.0
 10
891.7188552120874
 20
117.4383542853286
 30
0.0
 11
891.4312825615716
 21
117.2022036066754
 31
0.0
 11
891.4139065187749
 21
117.2195676412602
 31
0.0
 11
891.44431469341
 21
117.2586365393565
 31
0.0
 11
891.5598647995121
 21
117.3055194087731
 31
0.0
 11
891.6684645682877
 21
117.3445885464956
 31
0.0
 11
891.7040855956583
 21
117.3775802840947
 31
0.0
 11
891.7188552120874
 21
117.4383542853286
 31
0.0
  0
ELLIPSE
  5
296
102
{ACAD_REACTORS
330
293
102
}
330
2
100
AcDbEntity
  8
STITEK_M
  6
Continuous
100
AcDbEllipse
 10
891.7127167452203
 20
117.2288257034371
 30
0.0
 11
-0.3148447152881282
 21
0.0033129860855955
 31
0.0
210
0.0
220
0.0
230
1.0
 40
0.208658006213403
 41
0.4670645063432413
 42
2.775302586215255
  0
LWPOLYLINE
  5
297
330
2
100
AcDbEntity
  8
STITEK_M
 62
    84
100
AcDbPolyline
 90
        2
 70
     1
 43
0.25
 10
898.5585479532863
 20
114.569748597025
 42
-1.0
 10
898.3085479532862
 20
114.569748597025
 42
-1.0
  0
LWPOLYLINE
  5
298
330
2
100
AcDbEntity
  8
STITEK_M
 62
    84
100
AcDbPolyline
 90
        2
 70
     1
 43
0.25
 10
892.5335434802521
 20
119.2762993362365
 42
-1.0
 10
892.283543480252
 20
119.2762993362365
 42
-1.0
  0
LINE
  5
299
330
2
100
AcDbEntity
  8
STITEK_M
100
AcDbLine
 10
893.0948266799829
 20
113.3413304872409
 30
0.0
 11
893.7475397388343
 21
114.1192036200606
 31
0.0
  0
LWPOLYLINE
  5
29A
330
2
100
AcDbEntity
  8
STITEK_M
 62
    84
100
AcDbPolyline
 90
        2
 70
     1
 43
0.25
 10
895.7480016179969
 20
117.3904758260227
 42
-1.0
 10
895.498001617997
 20
117.3904758260227
 42
-1.0
  0
LINE
  5
29B
330
2
100
AcDbEntity
  8
STITEK_M
100
AcDbLine
 10
890.0937928854592
 20
115.0896409536109
 30
0.0
 11
890.4358130287848
 21
116.0293335743968
 31
0.0
  0
ELLIPSE
  5
29C
330
2
100
AcDbEntity
  8
STITEK_M
  6
Continuous
100
AcDbEllipse
 10
891.7145306216559
 20
117.2162719387788
 30
0.0
 11
0.3592620220455279
 21
0.0044227000392436
 31
0.0
210
0.0
220
0.0
230
0.9999999999999998
 40
0.2033161782228114
 41
3.295011636824606
 42
6.087480999220447
  0
LINE
  5
29D
330
2
100
AcDbEntity
  8
STITEK_M
100
AcDbLine
 10
891.6752337422424
 20
114.3531124653569
 30
0.0
 11
892.1752337422423
 21
115.2191378691413
 31
0.0
  0
SPLINE
  5
29E
330
2
100
AcDbEntity
  8
STITEK_M
  6
Continuous
100
AcDbSpline
210
0.0
220
0.0
230
1.0
 70
     8
 71
     3
 72
    30
 73
    26
 74
    24
 42
0.0000000001
 43
0.0000000001
 44
0.0000000001
 12
-0.9866450129802846
 22
-0.1628852920344075
 32
0.0
 13
0.7871550817798504
 23
-0.6167551193368056
 33
0.0
 40
0.0
 40
0.0
 40
0.0
 40
0.0
 40
0.1194047895512013
 40
0.1601423761398921
 40
0.194056891939788
 40
0.2512949929768676
 40
0.2958652539072802
 40
0.3662911871356001
 40
0.3994686838731006
 40
0.4393381800347827
 40
0.4867645405811135
 40
0.639337871533237
 40
0.6896290741192443
 40
0.7225587368173558
 40
0.7391468371908588
 40
0.7672767713513807
 40
0.7890289765455863
 40
0.8232141745965572
 40
0.8748589310209043
 40
0.9456497362638316
 40
1.052562937575211
 40
1.142181300125895
 40
1.220961817483479
 40
1.314828337562468
 40
1.364733212563387
 40
1.364733212563387
 40
1.364733212563387
 40
1.364733212563387
 10
891.4770958642291
 20
118.2104178416876
 30
0.0
 10
891.4378258175169
 20
118.2039347470154
 30
0.0
 10
891.3873332620458
 20
118.1879416508783
 30
0.0
 10
891.328814582205
 20
118.1528021186901
 30
0.0
 10
891.316709994761
 20
118.1081938959185
 30
0.0
 10
891.3153912783014
 20
118.0633430150465
 30
0.0
 10
891.3175342940842
 20
118.005992271121
 30
0.0
 10
891.3280822557451
 20
117.9563128360667
 30
0.0
 10
891.3547806251287
 20
117.9161599661199
 30
0.0
 10
891.3821308653634
 20
117.8866105614835
 30
0.0
 10
891.4436605442352
 20
117.8353050847046
 30
0.0
 10
891.5086435383646
 20
117.7840318898359
 30
0.0
 10
891.5704797726641
 20
117.7337804282086
 30
0.0
 10
891.5937303883737
 20
117.7120660343654
 30
0.0
 10
891.6108155278941
 20
117.6880039445778
 30
0.0
 10
891.5893730210225
 20
117.6696368440482
 30
0.0
 10
891.5717409219565
 20
117.6499069869063
 30
0.0
 10
891.5433893301969
 20
117.6267171466777
 30
0.0
 10
891.5034668546793
 20
117.5936700954545
 30
0.0
 10
891.4445936221861
 20
117.5444536276411
 30
0.0
 10
891.3753535959234
 20
117.4895214767107
 30
0.0
 10
891.3185535887848
 20
117.4112345874428
 30
0.0
 10
891.316562726565
 20
117.3236768009149
 30
0.0
 10
891.310564584422
 20
117.2426421574996
 30
0.0
 10
891.3486130136606
 20
117.2085976219293
 30
0.0
 10
891.3617073056482
 20
117.1983379262171
 30
0.0
 11
891.4770958642291
 21
118.2104178416876
 31
0.0
 11
891.3637532580594
 21
118.1728551288671
 31
0.0
 11
891.3314204851083
 21
118.1480732250992
 31
0.0
 11
891.3198860609975
 21
118.1161804133327
 31
0.0
 11
891.3159812626254
 21
118.0590756608159
 31
0.0
 11
891.3182273631855
 21
118.0145620315359
 31
0.0
 11
891.3362344534704
 21
117.9464771083109
 31
0.0
 11
891.3541522102105
 21
117.9185539945309
 31
0.0
 11
891.3809522737105
 21
117.8890356388759
 31
0.0
 11
891.4167239775155
 21
117.8578965174759
 31
0.0
 11
891.5354993065605
 21
117.7621309572359
 31
0.0
 11
891.5741424457404
 21
117.7299453571659
 31
0.0
 11
891.5972543100254
 21
117.7064889206359
 31
0.0
 11
891.6049369948956
 21
117.6917871715159
 31
0.0
 11
891.589105814528
 21
117.6685349259459
 31
0.0
 11
891.5738935413406
 21
117.6529867692937
 31
0.0
 11
891.5481080983404
 21
117.6305426454509
 31
0.0
 11
891.5083079863762
 21
117.597631675338
 31
0.0
 11
891.4538008406232
 21
117.552461893749
 31
0.0
 11
891.3739391866668
 21
117.4813806104038
 31
0.0
 11
891.3257951906405
 21
117.4057922081659
 31
0.0
 11
891.3159812626254
 21
117.3276253562909
 31
0.0
 11
891.3272500512304
 21
117.2344377069209
 31
0.0
 11
891.3617073056482
 21
117.1983379262171
 31
0.0
  0
SPLINE
  5
29F
330
2
100
AcDbEntity
  8
STITEK_M
  6
Continuous
100
AcDbSpline
210
0.0
220
0.0
230
1.0
 70
     8
 71
     3
 72
    30
 73
    26
 74
    24
 42
0.0000000001
 43
0.0000000001
 44
0.0000000001
 12
0.9866450129802846
 22
-0.1628852920344075
 32
0.0
 13
-0.7871550817798504
 23
-0.6167551193368056
 33
0.0
 40
0.0
 40
0.0
 40
0.0
 40
0.0
 40
0.1194047895512058
 40
0.1601423761398966
 40
0.1940568919397925
 40
0.2512949929768721
 40
0.2958652539072848
 40
0.36629118713562
 40
0.399468683873071
 40
0.4393381800347427
 40
0.4867645405810828
 40
0.6393378715332064
 40
0.6896290741192136
 40
0.7225587368173948
 40
0.7391468371908451
 40
0.7672767713513787
 40
0.7890289765455844
 40
0.8232141745964694
 40
0.8748589310209043
 40
0.9456497362638314
 40
1.052562937575211
 40
1.142181300125895
 40
1.220961817483465
 40
1.314828337562454
 40
1.364733212563452
 40
1.364733212563452
 40
1.364733212563452
 40
1.364733212563452
 10
891.9520466885717
 20
118.2181763653793
 30
0.0
 10
891.991316735284
 20
118.2116932707071
 30
0.0
 10
892.0418092907551
 20
118.19570017457
 30
0.0
 10
892.1003279705958
 20
118.1605606423818
 30
0.0
 10
892.1124325580402
 20
118.1159524196103
 30
0.0
 10
892.1137512744994
 20
118.0711015387382
 30
0.0
 10
892.1116082587163
 20
118.0137507948127
 30
0.0
 10
892.1010602970554
 20
117.9640713597584
 30
0.0
 10
892.074361927672
 20
117.9239184898115
 30
0.0
 10
892.0470116874373
 20
117.8943690851752
 30
0.0
 10
891.9854820085657
 20
117.8430636083963
 30
0.0
 10
891.9204990144356
 20
117.7917904135276
 30
0.0
 10
891.8586627801371
 20
117.7415389519002
 30
0.0
 10
891.8354121644265
 20
117.7198245580572
 30
0.0
 10
891.8183270249071
 20
117.6957624682694
 30
0.0
 10
891.8397695317782
 20
117.6773953677399
 30
0.0
 10
891.857401630844
 20
117.6576655105981
 30
0.0
 10
891.8857532226043
 20
117.6344756703693
 30
0.0
 10
891.9256756981209
 20
117.6014286191463
 30
0.0
 10
891.9845489306149
 20
117.5522121513328
 30
0.0
 10
892.0537889568775
 20
117.4972800004024
 30
0.0
 10
892.1105889640159
 20
117.4189931111345
 30
0.0
 10
892.1125798262355
 20
117.3314353246066
 30
0.0
 10
892.118577968379
 20
117.2504006811913
 30
0.0
 10
892.0805295391401
 20
117.2163561456211
 30
0.0
 10
892.0674352471525
 20
117.2060964499088
 30
0.0
 11
891.9520466885717
 21
118.2181763653793
 31
0.0
 11
892.0653892947413
 21
118.1806136525588
 31
0.0
 11
892.0977220676926
 21
118.1558317487909
 31
0.0
 11
892.1092564918033
 21
118.1239389370244
 31
0.0
 11
892.1131612901755
 21
118.0668341845076
 31
0.0
 11
892.1109151896153
 21
118.0223205552276
 31
0.0
 11
892.0929080993303
 21
117.9542356320026
 31
0.0
 11
892.0749903425903
 21
117.9263125182226
 31
0.0
 11
892.0481902790902
 21
117.8967941625676
 31
0.0
 11
892.0124185752852
 21
117.8656550411676
 31
0.0
 11
891.8936432462404
 21
117.7698894809276
 31
0.0
 11
891.8550001070604
 21
117.7377038808576
 31
0.0
 11
891.8318882427753
 21
117.7142474443276
 31
0.0
 11
891.8242055579053
 21
117.6995456952076
 31
0.0
 11
891.8400367382728
 21
117.6762934496376
 31
0.0
 11
891.8552490114603
 21
117.6607452929854
 31
0.0
 11
891.8810344544603
 21
117.6383011691426
 31
0.0
 11
891.9208345664245
 21
117.6053901990297
 31
0.0
 11
891.9753417121777
 21
117.5602204174407
 31
0.0
 11
892.0552033661339
 21
117.4891391340954
 31
0.0
 11
892.1033473621603
 21
117.4135507318576
 31
0.0
 11
892.1131612901755
 21
117.3353838799826
 31
0.0
 11
892.1018925015703
 21
117.2421962306126
 31
0.0
 11
892.0674352471525
 21
117.2060964499088
 31
0.0
  0
ELLIPSE
  5
2A0
330
2
100
AcDbEntity
  8
STITEK_M
  6
Continuous
100
AcDbEllipse
 10
891.7154298281255
 20
118.1631747646109
 30
0.0
 11
0.3270692511475453
 21
0.0040263904925144
 31
0.0
210
0.0
220
0.0
230
0.9999999999999998
 40
0.2233281821712586
 41
0.0
 42
6.283185307179586
  0
CIRCLE
  5
2A1
330
2
100
AcDbEntity
  8
SVORKY
 62
     7
100
AcDbCircle
 10
890.4252337422425
 20
131.4238961281041
 30
0.0
 40
0.875
  0
LINE
  5
2A2
330
2
100
AcDbEntity
  8
SVORKY
 62
     7
100
AcDbLine
 10
890.7473583159832
 20
130.6103478781164
 30
0.0
 11
890.601206856453
 21
132.281018329362
 31
0.0
  0
LINE
  5
2A3
330
2
100
AcDbEntity
  8
SVORKY
 62
     7
100
AcDbLine
 10
890.2492606248834
 20
130.5667739335986
 30
0.0
 11
890.1031091669274
 21
132.237444381468
 31
0.0
  0
TEXT
  5
2A4
330
2
100
AcDbEntity
  8
SVORKY_POPIS
 62
     7
100
AcDbText
 10
890.6793627358521
 20
134.4305812931141
 30
0.0
 40
0.65
  1
2
 50
180.0
  7
COMIC
 72
     1
 11
890.4044980538495
 21
134.4305812931141
 31
0.0
100
AcDbText
  0
CIRCLE
  5
2A5
330
2
100
AcDbEntity
  8
SVORKY
  6
Continuous
100
AcDbCircle
 10
890.4252337422425
 20
128.6738961281041
 30
0.0
 40
0.375
  0
CIRCLE
  5
2A6
330
2
100
AcDbEntity
  8
SVORKY
  6
Continuous
100
AcDbCircle
 10
890.4252337422425
 20
128.6738961281041
 30
0.0
 40
0.6499999999999986
  0
LINE
  5
2A7
330
2
100
AcDbEntity
  8
SVORKY
  6
Continuous
100
AcDbLine
 10
891.1752337422425
 20
129.6738961281041
 30
0.0
 11
891.6752337422424
 21
129.6738961281041
 31
0.0
  0
LINE
  5
2A8
330
2
100
AcDbEntity
  8
SVORKY
  6
Continuous
100
AcDbLine
 10
891.1752337422425
 20
126.9238961281041
 30
0.0
 11
891.1752337422425
 21
130.1738961281041
 31
0.0
  0
ENDSEC
  0
SECTION
  2
OBJECTS
  0
DICTIONARY
  5
7
330
0
100
AcDbDictionary
281
     1
  3
ACAD_GROUP
350
1F
  3
ACAD_LAYOUT
350
B
  3
ACAD_MLINESTYLE
350
20
  3
ACAD_PLOTSETTINGS
350
21
  3
ACAD_PLOTSTYLENAME
350
6
  0
DICTIONARY
  5
1F
102
{ACAD_REACTORS
330
7
102
}
330
7
100
AcDbDictionary
281
     1
  0
DICTIONARY
  5
B
102
{ACAD_REACTORS
330
7
102
}
330
7
100
AcDbDictionary
281
     1
  3
Layout2
350
F
  3
Model
350
A
  0
DICTIONARY
  5
20
102
{ACAD_REACTORS
330
7
102
}
330
7
100
AcDbDictionary
281
     1
  3
Standard
350
22
  0
DICTIONARY
  5
21
102
{ACAD_REACTORS
330
7
102
}
330
7
100
AcDbDictionary
281
     1
  0
ACDBDICTIONARYWDFLT
  5
6
102
{ACAD_REACTORS
330
7
102
}
330
7
100
AcDbDictionary
281
     1
  3
Normal
350
5
100
AcDbDictionaryWithDefault
340
5
  0
LAYOUT
  5
F
102
{ACAD_REACTORS
330
B
102
}
330
B
100
AcDbPlotSettings
  1

  2
Minolta PagePro 20
  4
A4
  6

 40
7.651750087738037
 41
4.603739261627197
 42
4.646087646484375
 43
4.603759765625
 44
210.0579986572265
 45
296.9259948730469
 46
0.0
 47
0.0
 48
0.0
 49
0.0
140
0.0
141
0.0
142
1.0
143
1.0
 70
   688
 72
     1
 73
     1
 74
     5
  7
pera čb.ctb
 75
    16
147
1.0
148
0.0
149
0.0
100
AcDbLayout
  1
Layout2
 70
     1
 71
     1
 10
-4.603759765625
 20
-7.651750087738037
 11
292.3222351074219
 21
202.4062485694885
 12
0.0
 22
0.0
 32
0.0
 14
28.77184958457945
 24
19.7760160923004
 34
0.0
 15
258.9466462612152
 25
177.9841448307037
 35
0.0
146
0.0
 13
0.0
 23
0.0
 33
0.0
 16
1.0
 26
0.0
 36
0.0
 17
0.0
 27
1.0
 37
0.0
 76
     0
330
C
  0
LAYOUT
  5
A
102
{ACAD_REACTORS
330
B
102
}
330
B
100
AcDbPlotSettings
  1

  2
Minolta PagePro 20
  4

  6

 40
0.0
 41
0.0
 42
0.0
 43
0.0
 44
0.0
 45
0.0
 46
0.0
 47
0.0
 48
0.0
 49
0.0
140
0.0
141
0.0
142
1.0
143
1.0
 70
  1712
 72
     0
 73
     0
 74
     0
  7
pera čb.ctb
 75
     0
147
1.0
148
0.0
149
0.0
100
AcDbLayout
  1
Model
 70
     1
 71
     0
 10
0.0
 20
0.0
 11
12.0
 21
9.0
 12
0.0
 22
0.0
 32
0.0
 14
0.0
 24
0.0
 34
0.0
 15
0.0
 25
0.0
 35
0.0
146
0.0
 13
0.0
 23
0.0
 33
0.0
 16
1.0
 26
0.0
 36
0.0
 17
0.0
 27
1.0
 37
0.0
 76
     0
330
2
  0
MLINESTYLE
  5
22
102
{ACAD_REACTORS
330
20
102
}
330
20
100
AcDbMlineStyle
  2
STANDARD
 70
     0
  3

 62
   256
 51
90.0
 52
90.0
 71
     2
 49
0.5
 62
   256
  6
BYLAYER
 49
-0.5
 62
   256
  6
BYLAYER
  0
ACDBPLACEHOLDER
  5
5
102
{ACAD_REACTORS
330
6
102
}
330
6
  0
ENDSEC
  0
EOF
